AccueilS'enregistrerConnexionLes tablatures de Queen  Empty

Partagez
 

 Les tablatures de Queen

Aller en bas 
AuteurMessage
simbaud
Administrateur de Queenland
simbaud

Messages : 2811
Date d'inscription : 08/06/2013
Age : 23
Localisation : Queenland (rires)

Les tablatures de Queen  Empty
MessageSujet: Les tablatures de Queen    Les tablatures de Queen  EmptyVen 31 Jan - 18:35

Keep Yourself Alive



right guitar
|----------------------------------------------------------------------------|
|----------------------------------------------------------------------------|
|----------------------------------------------------------------------------|
|----------------------------------------------------------------------------|
|-slide down-----------------------------------------------------------------|
|(11-11-11)-3111x11-111-111-1111111-1111-x1-1111111-1111111-1111111/55555555-|
       \  \
|---------------------------------------------------------------------|
|---------------------------------------------------------------------|
|---------------------------------------------------------------------|
|---------------------------------------------------------------------|
|---------------------------------------------------------------------|
|-555-555-555-555x5555555-555-555-555-555-555-55555-55555-555-555-555-|
   >
|------------------------------------------------------------------------|
|------------------------------------------------------------------------|
|------------------------------------------------------------------------|
|---------------------------------------------------7777-----------------|
|---------------------------------------------------7777-----------------|
|-55555555555-555-5555555-555-555-555555555555555-555555--555555-5555555-|

|------------------------------------------------------------------------|
|------------------------------------------------------------------------|
|------------------------------------------------------------------------|
|-----------7777---------------------------------------------------------|
|-----------7777---------------------------------------------------------|
|-555555555-5555555555555-5555555-5555555-5-5555555-5555555555555555555--|

|--------------------------------|
|---------------7---------5---1--|
|-----------5---7---------3---2--|
|-----------5---7-----5---5---3--|
|-----------3---5-----3---3---3--|
|-5555555-55----------3-------1--|

left guitar (8")
|-----------------------------------------------------------|
|-------------------------7b8-7---8r7p5---7--5--------------|
|-------------------------7b9-7---9r7p5---7--6---7p5---5-7--|
|---------------------------------------------------7-------|
|-----------------------------------------------------------|
|-55555-5-55555-5555555x55----------------------------------|

|------------------------------------------------------------------------|
|-b8-7---8r7p5---7--5---------------0x7b8-7---8r7p5------5---------------|
|-b9-7---9r7p5---7--6-----------------7b9-7---9r7p5---7--6---------------|
|--------------7-------7p5---5-7--------------------7---------7p5---5-7--|
|-------------------------7--------------------------------------7-------|
|------------------------------------------------------------------------|

|----------------------------------------------------------------------------|
|-7b8-7---8r7p5---7--5-----------------7b8-7---8r7p5---7--5---------------5b-|
|-7b9-7---9r7p5---7--6-----------------7b9-7---9r7p5---7--6---------------5b-|
|---------------7--------7p5---5-7-------------------7--------7p5---5-7------|
|---------------------------7------------------------------------7-----------|
|----------------------------------------------------------------------------|

|------------------------------------------------|
|-5-7b8-7---8r7---7--5--------------------5---1--|
|-5-7b9-7---9r7---7--6---------5-7--------3---2--|
|--------------07--------7p5---5-7----5---5---3--|
|---------------------------7---------3---3---3--|
|-------------------------------------3-------1--|

|right guitar
|---------------------------------------------------------------------------|
|-----------------------------------------------------6---------------------|
|-------------------------6-------5--5\---------------4---------------------|
|---------------5----5----6---6---5-----------5---5-/-6---------------------|
|---------------3------3--4---6---3-----------3---3-/-4---------------------|
|-1-111........-3------3------4--------1-1...-3---------4-44...-5....-------|
|left guitar
|               C         C#7 G#  C    F      C       C#7 G#     A

middle guitar
|----------------------|
|----------------------|
|----------9---12b14vv-|
|-7---9/11-------------|
|----------------------|
|----------------------|


"keep yourself alive"
|right and left guitar
|D  A  D C# B G A A D
|midle guitar
|-----------------------------------------------|
|-----------------------------------------------|
|-----------------------------------------------|
|-7--8--9-/12--12----------12---12h14p12----12--|
|--------------------12h14---------------14-----|
|-----------------------------------------------|

right guitar
|----------------------------------------------------------------|
|----------------------------------------------------------------|
|----------------------------------------------------------------|
|---------------------------------------------------------77777--|
|---------------------------------------------------------77777--|
|-55555-555-555-555555555-5555555555555-555555555555555-5-55555--|
                                 >
|-------------------------------------------------------------------------|
|-------------------------------------------------------------------------|
|-------------------------------------------------------------------------|
|----------------------------77777-777------------------------------------|
|----------------------------77777-777------------------------------------|
|-(5)55555-5555555-5555555-5555555-555-55-555-555-555-555-555-555-555-555-|

|-------------------------------------------------------------|
|-------------------------------------------------------1-----|
|-------------------------------------------------5-7---2-----|
|-------------------------------------------------5-7---3-----|
|-------------------------------------------------3-5---3-----|
|-555-5555555-555-555-555555555-555-5555-55-555555------1-----|

left guitar
|------------------------------------------------------------------------|
|-b8-7---8r7p5---7--5-----------------7b8-7---8r7p5---7--5---------------|
|-b9-7---9r7p5---7--6-----------------7b9-7---9r7p5---7--6---------------|
|--------------7-------7p5---5-7--------------------7---------7p5---5-7--|
|-------------------------7--------------------------------------7-------|
|------------------------------------------------------------------------|

|--------------------------------------------------------------------------|
|-7h8---8-8-7-5---5----7h8---8-8-7-5-----5----7h8---8-8---8/10-10---10-10--|
|-7h9---9-9-7-6---6----7h9---9-9-7-5h6---6----7h9---9-9---9/11-11---11-11--|
|-----------------7----7-----------------7----7-----7-7---7----------------|
|--------------------------------------------------------------------------|
|--------------------------------------------------------------------------|

|-------------------------------------------------------------------|
|/12---12-12-12-12-/14\---7b8-7---8r7p5---7--5----------------------|
|/12---12-12-12-12-/14\---7b9-7---9r7p5---7--6---------5-7--/10-----|
|/12---12-12-12-12-/14\-----------------7--------7p5---5-7--/10-----|
|---------------------------------------------------7--3-5--/8------|
|-------------------------------------------------------------------|

|---------------------------------------------------------------------|
|----------------5---6---6-4----------1----------5---5-6----6-4-------|
|----------3-2---5---6---6-5---5-5----2----------5---5-6----6-5---6---|
|----------3-3---5---6---6-6---6-5----3----------5---5-6----6-6---7---|
|----------------3---4---4-6---6-3----3----------3---3-4----4-6---7---|
|-1-111...1----------------4----------1-/5-555...-------------4---5---|
|left guitar
|                C   C#    G#    C           xxx C     C#     G#
midle guitar fill
|------------------------|
|------------------------|
|------------------------|
|-5h7---5----------------|
|--------7\6---3-----5\--|
|----------------5-------|

left and right guitar
D  A  D C# B G A A D

guitar fill (two guitars arr. for one)
|----------------------------------------------------|
|----------------------------------------------------|
|--right----left-------------------------------------|
|-11p9h11p9-7--8--9/12--12---16r14p12---------12-14--|
|-------------------------------------14---14--------|
|----------------------------------------------------|

|right guitar
|------------------------------------------------------|
|-1----------------------------------------------------|
|-2---2/10---11--b12vv-10\7--5--6--7---9b10-9v---7--5--|
|-3----------------------------------------------------|
|-3----------------------------------------------------|
|-1----------------------------------------------------|

|--------------------------------------------------------|
|--------------------------------------------------------|
|-5-5-5-5-5---5-5-5-5-5---5--6--7-7-9b10---7-------------|
|--------7-----------7-----------------------10-8-7-5-3--|
|--------------------------------------------------------|
|--------------------------------------------------------|

left guitar I
|---------------------------------------------------------------------------|
|-13---15-16-17vvv-15b18--15-13--15-----------------13b15---13-11-10--------|
|------------------------------------14p12-14p12-10------------------12b14--|
|---------------------------------------------------------------------------|
|---------------------------------------------------------------------------|
|---------------------------------------------------------------------------|

|----------------------------------------------------------------------------|
|----------------------------------------------------------------------------|
|-14r12p10----10----12b14--b14--b14r12p10----10---12b14--b14-b14-14r12p10----|
|----------12-----------------------------12------------------------------12-|
|----------------------------------------------------------------------------|
|----------------------------------------------------------------------------|

|-----------------------------------------------------------------------------|
|---------------------13-------13-------13-------13---------------------------|
|-12b14--12-----12b14----12b14----12b14----12b14-----14r12p10--------------10-|
|-------------------------------------------------------------12p10--10h12----|
|-----------------------------------------------------------------------------|
|-----------------------------------------------------------------------------|

left guitar II
|--------------------------------------------------------------------|
|-3p2p0h2h3p2p0h2----10---11-12-b13---13r11_p10----------------------|
|----------------------------------------------10-10-9-9-7----12b14--|
|--------------------------------------------------------------------|
|--------------------------------------------------------------------|
|--------------------------------------------------------------------|

|----------------------------------------------------------------------------|
|----------------------------------------------------------------------------|
|-12-10--------------------10--10--10--10----10------10--10--10----10----9---|
|-------12-10---8--8--7-------------------12--------------------12----12-----|
|----------------------------------------------------------------------------|
|----------------------------------------------------------------------------|

|-----------------------------|
|-----------------------------|
|-10--9--7--10--7-------------|
|----------------10-8-7-5-3---|
|-----------------------------|
|-----------------------------|

left and right guitar
D (G) D  A  D F# B G A A E

right guitar
|-----------------|
|-------14b15-14--|
|-------14b16-14--|
|-----------------|
|-0---0-----------|
|-----------------|

|right guitar
|----------------------------14-15-16-b17vv--|
|----------------14-15-16-17-----------------|
|-------13-14-16-----------------------------|
|-14-16--------------------------------------|
|--------------------------------------------|
|--------------------------------------------|
|left guitar
|--------------------------------------------|
|-------------------------------12-13-b14vv--|
|-------------------11-12-13-14--------------|
|----------11-12-14--------------------------|
|-11-12-14-----------------------------------|
|--------------------------------------------|
|midle guitar
|--------------------------------------------|
|----------------------------14-15-16-b17vv--|
|----------------13-14-15-16-----------------|
|----------14-16-----------------------------|
|-14-16-17-----------------------------------|
|--------------------------------------------|

right guitar
D (G) D  A  D F# B G A A D
left guitar
|---------------------------------------------|
|---------------------------------------------|
|---------------------------------------------|
|-7--8--9/12--12---------12---12h14p12----12--|
|------------------12h14---------------14-----|
|---------------------------------------------|

right guitar
F (A#) F  C  F A D A# C C
D (G) D  A  D F# B G A A D
B (E) B  F# ... B ...
left guitar
|--------------------------------------------------------------------------|
|--------------------------------------------------------------------------|
|--------------------------------------------------------------------------|
|-9p7--8--9/12--12--14-14b16--14-14b16--14-14b16---b16---14-12b---9--8-9---|
|--------------------------------------------------------------------------|
|--------------------------------------------------------------------------|

|--------7--------------------------------7-----7-----7-----7--------------------------|
|------------10p7--10b12--b11v---7-----------------------------------------------------|
|-9b11-------------------------------9b11---b11---b11---b11---11r9p7---9---7--------4--|
|--------------------------------------------------------------------9---------9\---4--|
|-----------------------------------------------------------------------------------2--|
|--------------------------------------------------------------------------------------|

_________________________________________________
[Vous devez être inscrit et connecté pour voir cette image]
Revenir en haut Aller en bas
simbaud
Administrateur de Queenland
simbaud

Messages : 2811
Date d'inscription : 08/06/2013
Age : 23
Localisation : Queenland (rires)

Les tablatures de Queen  Empty
MessageSujet: Re: Les tablatures de Queen    Les tablatures de Queen  EmptyVen 31 Jan - 18:42


Doing All Right

piano (right) arrangement for guitar
|-----0--------0--------0--------12---|----|
|-9-------10-------12-------10--------|----|
|-------------------------------------|-0/-|
|-9-------11-------13-------11--------|-/0-|
|-------------------------------------|----|
|---0---0----0---0----0---0----0----0-|-3X-|

|-----0--------0-------0-------0----------------------------------|
|-9-------10-------9-------9--------9---9---9---7---7---7---5-----|
|------------------7-------6--------9---9---9---8---8---8---6-----|
|-9-------11-------9-------8--------9---9-------9---9---9---7-----|
|-----------------------------------------------------------------|
|---0---0----0---0---0---0---0---0------7-------------7--------5--|

clean eletric guitar (left)
|------------|----------------|----------------------------------------*
|-12b14__r12-|----------------|----------------------------------------*
|------------|-12-11-9----9---|----------9----13r11p9------11b13--b13--*
|------------|---------11-----|------9----------------11---------------*
|------------|----------------|-9/11-----------------------------------*
|------------|----------------|----------------------------------------*

*-------------------------|---------------------------------------------|
*-12----------------------|-12b14---12----------------------------------|
*----13r11---11p9------9--|-------------11b13-----13r11-9---8h9p8-------|
*-----------------11p9----|---------------------------------------9/11--|
*-------------------------|---------------------------------------------|
*-------------------------|---------------------------------------------|

|---------------------------------------------------------------|
|---------------------------------------------------------------|
|----------13r11----------13r11b13r11-b13---13r11p9-------------|
|-(9b11r9)------------------------------------------11---9-7-6--|
|---------------------------------------------------------------|
|---------------------------------------------------------------|

|----------------------------------------------|
|-------------------12----10--9-10-8h9p8-------|
|-/9--------13r11p9----------------------11-9--|
|-------11-------------------------------------|
|----------------------------------------------|
|----------------------------------------------|

acoustic guitar
|-------------------------------------------0-0-0-------22-------5-----|
|---3--3-3-3--------33-3-3-3-----3----3------------2-------3-3-3----2--|
|--2-2-2-0-0-2--2--2-2-2-0-0----2----2--2-2-0-0--2-----2-2-2-0-0---2---|
|-0------------2--0------------2----0-------------2---0-----------2----|
|----4-4-2-2--0------4-4-2-2-20---------4-4-2-2-0--------4-4-2-2-0-----|
|----------------------------------------------------------------------|

|------------------------------------4-4------0------4-4--------0----|
|---33-3-3-3-3--3------3-----2-------4-4-2-----0-----4-4-2-2--0------|
|--2-2-2-0-0-----------2-0-0----2----4-4-2------2----4-4-2-2------01-|
|-0------------2--0----------------2--------2----2-2-----------2-2---|
|----4-4-2-2-0-------4-4-2-2--0---2------0---------2-----0-0---------|
|---------------------------------0----------------0-----------------|

|---4-4--------0------------0--0--------------------|
|---4-4-----0-------3------2----3---3---2--2--------|
|-------2-2--2--------0-0----0--------0-----2-------|
|-----2-------2--------0------2--------0--2--2---2--|
|-2-----0-0------101-----0-------101-----0----------|
|-0-------------------------------------------------|

|---------------------------------------------5---------------0---|
|---------------------3-3-3-3---------3-3---------------3-3-3----3|
|----2-2-0-0-2--2-----2-2-0-0----2----2-2-0-0----2----2-2-0-0-----|
|-0--0---------2---0--0-0-0-0-0-2--0--0-0-0-0---2--0--0-0-0-0---2-|
|----4-4-2-2--0-------4-4-2-2--0------4-4-2-2--0------4-4-2-2-0---|
|-----------------------------------------------------------------|

|-------------------|
|------------3--3-..|
|----2-2-0-0-2----..|
|-0--0-0-0-0---2--..|
|----4-4-2-2-0----..|
|-----------------..|

right and left guitar
E(VII) B(VII) D(V) A(V)
E(VII) B(VII) D(V) A(V)
E(VII) B(VII) D(V) A(V)
E(VII) B(VII) D(V) A(V) E(VII)

E(VII) A(V) E(VII) B(VII) E(VII) A(V) E(VII) B(VII) E(VII)
E(VII) A(V) E(VII) B(VII) E(VII) A(V) E(VII) B(VII) E(VII)
E

midle guitar
|--------------------------------------------|
|--------------------------------------------|
|--------------------------------------------|
|--------------------------5-----------------|
|-7--------5-6-7------------7-------5-6-7----|
|-----7----------5----3p0-------7---------5--|

|--------------------------------------------------------------------------|
|--------------------------------------------------------------------------|
|-------------------------------12b------1414-12-----14b16-b16-b16---b16---|
|-h14-12----12---14p12-14p12----------14---------14------------------------|
|--------14------------------14--------------------------------------------|
|--------------------------------------------------------------------------|

|-----------------------------------------------------------------------------|
|----------------------15b17---15b17-------------b17---b17---b17---b17---b17--|
|-b16-b16-b16-b16-r14----------------------------------------b16---b16---b16--|
|-------------------------------------2p0h2..2p0------------------------------|
|-----------------------------------------------------------------------------|
|-----------------------------------------------------------------------------|

|----------12-12----------12-------------12-------------12------|
|-------12-------------12---1512------12---1512------12----1512-|
|-14b16----------14b16----------14b16----------14b16------------|
|---------------------------------------------------------------|
|---------------------------------------------------------------|
|---------------------------------------------------------------|

|----------12----12-----------------|
|-------12----12----12-12-12-15b17--|
|-14b16-----------------------------|
|-----------------------------------|
|-----------------------------------|
|-----------------------------------|

clean eletric guitar (left)
|----------------------------12---16r14b16r14-12--|-19_____---------------|
|-9h10p9..10p9---10--10/12------------------------|---21r19-17------17vv--|
|-------------------------------------------------|-------------18--------|
|-------------------------------------------------|-----------------------|
|-------------------------------------------------|-----------------------|
|-------------------------------------------------|-----------------------|

|------------------------------------------------------------|
|------------------------------------------------------------|
|-18-18p16---16-18p16-18p16-18---16----13h16p13h16p13h16p13--|
|------------------------------------------------------------|
|------------------------------------------------------------|
|------------------------------------------------------------|

|---------------------------------|------------------------------------------|
|---------------------------------|------------------------------------------|
|---------------------------------|------------------------------------------|
|-18r16--14--18r16--(14)--16b18v--|-/14--/14--/14-----14---------------------|
|---------------------------------|----------------16------------------------|
|---------------------------------|------------------------------------------|

right and left guitar
E(VII) B(VII) D(V) A(V)
E(VII) B(VII) D(V) A(V)

E(VII) B(VII) D(V) A(V)
E(VII) B(VII) D(V) A(V)
E(VII) B(VII) D(V) A(V)
E(VII) B(VII) D(V) A(V) E(VII) (D(V))

E(VII) A(V) E(VII) B(VII) E(VII) A(V) E(VII) B(VII) E(VII)
E(VII) A(V) E(VII) B(VII) E(VII) A(V) E(VII) B(VII) E(VII)
E

middle guitar
|-----------------------------------------------------------------------------|
|-----------------------------------------------------------------------------|
|--------------------------------------------------16r14-12-------------------|
|-------------------14p12----12---12-14p12----14-----------------12-13-14-----|
|-7-------5-6-7-7---------14---------------14---------------14------------12--|
|-----7-----------------------------------------------------------------------|

|--------------------------------------------------------------------12--------
|-----------------------------------------------------------------12----15b17--
|---------------------------------------------------9-11b13v_\/13--------------
|----------------------------------------------9-11----------------------------
|-10--------------------------------------5/10---------------------------------
|----12-12-12---12-12-12-12-12-12-12-12----------------------------------------

|-------12-12-12-12-12-12----15b17---b17---b17---b17---17r15p13---|
|-----------------------------------------------------------------|
|-14b16------------------(0)--------------------------------------|
|-----------------------------------------------------------------|
|-----------------------------------------------------------------|
|-----------------------------------------------------------------|

|-b21---19v---17---16----16---------------21r19---------------------|
|--------------------------19-17-21r19p17------(17)-17---17---17-17-|
|-------------------------------------------------------------------|
|-------------------------------------------------------------------|
|-------------------------------------------------------------------|
|-------------------------------------------------------------------|

|------------------------------------------------------------|
|-21r19p17-17------17-\--------------------------------------|
|---------------18----------14b16---14--13--11---------------|
|-------------------------------------------------13--13p11--|
|------------------------------------------------------------|
|------------------------------------------------------------|

the vocal
|-------------------------------|
|-12-10-9--9--9--9--10-12-12-12-|
|-13-11-9--9--9--11-11-11-11-13-|
|-14-11-9--9--11-11-11-13-14-14-|
|-------------------------------|
|-------------------------------|

_________________________________________________
[Vous devez être inscrit et connecté pour voir cette image]
Revenir en haut Aller en bas
simbaud
Administrateur de Queenland
simbaud

Messages : 2811
Date d'inscription : 08/06/2013
Age : 23
Localisation : Queenland (rires)

Les tablatures de Queen  Empty
MessageSujet: Re: Les tablatures de Queen    Les tablatures de Queen  EmptyVen 31 Jan - 18:48

Great King Rat

let ring
:------------------------------------------------------------:
:------------------------------------------------------------:
:-----------(b9)-----9p7---------------------------------------:
:-----------(b9)-----9p7---------------------------------------:
:-F.B.------7------7------5h7-5h7-5h7-5h7-5h7-5h7-5h7-5h7----:
:-----------0------0------0---0---0---0---0---0---0---0------:

left guitar
:---------------------------------------------------------------------------:
:---------------------------------------------------------------------------:
:---------------------------------------------------------------------------:
:-17---17---17---17---17---16---16---16---16
---15---15---15---15 ---:
:-17---17---17---17---17---16---16---16---16
---15---15---15---15 ---:
:-16-0----0----0----0-------0----0----0----0-------0----0----0----0---------:

:--------------------------------------------:
:--------------------------------------------:
:--------------------------------------------:
:-14 ----13
-----------------------------:
:-14 ----13
-trem------trem-up with---:
:----------------down----F.B.--  vibrato  ---:

right guitar Am  F E

:right: acoustic guitar
:Am G E Am (G) Am G E Am C Em C D C G Am D
:
:left: clean eletric
:--------------------------------------------------------------:
:--------------------------------------------------------------:
:--------------------------------------------------------------:
:-------------x---x-5h7-----7h5-----5h7----------------------7-:
:--x-x-7---------------------------------5h7-------------------:
:-------------------------------------------------5--5-5-5-----:

:right guitar:
:C Em C D C G Am D
:
:left guitar
:C Em C
:
:--------------------------------------:
:--------------------------------------:
:-------7--------7--------7-------7----:
:---7h(b9)-----7h(b9)-----7h(b9)--------7----:
:--------------------------------------:
:--------------------------------------:

C G Am D

:right guitar (wah-wah)
:-------------------------------:--------------------------------:
:-------------------------------:--------------------------------:
:-------------------------------:------(b9)------------------------:
:--------------------7p5--------:------(b9)----------7-----x-x---x-:
:-0---2----3---5/7-------7------:------7-----0-------------------:
:----------------------------5--:--------------------------------:
:
:left guitar                                                      ??????????
:-------:--------------------------------------------------------:-----------:
:-------:-0--1---------------------------------------------------:-----------:
:-------:-0--2---------------------------------------------------:-----------:
:-7/10--:-0--2---------x---x2----x2----------------------7p5-----:-----------:
:-5/8---:------------------------------0---2---3---5/7-------7---:-----------:
:-------:--------------------------------------------------------:-----------:


right guitar (with wah-wah) and left guitar
C Em C (D)

left guitar
:-------------------------------------------------:
:-------------------------------------------------:
:-7---7----------7--------5---------7-------7---0-:
:-7---7----7h(b9)--7--------5-----7h(b9)--------------:
:-5---5-------------------5-----------------------:
:-------------------------------------------------:

left and right guitar
C G A D

:right guitar (wah-wah)
:---------------------------------------:
:-------3-------------------------------:
:-2-----0-------------------------------:
:-2-----0------(1)--2-1---------------2-:
:-0---------------------3-1-1-0-------0-:
:-------------------------------2-0-0---:
:left guitar
:-----------------------------------------------------------------------:
:-------------------------------(5)-------------------------------------:
:--------4-5---7---7(b9)----9---5-4------------------------------------:
:-5/7----------------------------------7---5-(0)---4/6----7h(b9)--7(b9)10--:
:-----------------------------------------------------------------------:
:-----------------------------------------------------------------------:

:right guitar (wah-wah)
:-10b12-----very slow release-------------------------------------------:
:-----------------------------------------------------------------------:
:------------------------------7b(b9)-7-5-7--7b8--b(b9)7-5--7-5-------------:
:------------------------------------------------------(6)--7-5-7---(0)-:
:-----------------------------------------------------------------------:
:-----------------------------------------------------------------------:
:left guitar
:-----------------------------------------------------------------------*
:--------------13---15---b17vv--b17-17r15-13-15---15---15b17r15p13-15---*
:-2/13-14---16----------------------------------------------------------*
:-----------------------------------------------------------------------*
:-----------------------------------------------------------------------*
:-----------------------------------------------------------------------*
:
*---------15----------------------15-----------------:
*-15b17--------17r15-13---15b17--------17r15---------:
*--------------------------------------------14---14-:
*----------------------------------------------------:
*----------------------------------------------------:
*----------------------------------------------------:

:right guitar(wah-wah) and left rythm-guitar
: C Em C D
:left solo-guitar
:----------------------------------------------------------------------------*
:----------------------------------------------------8---10p8------------17--*
:-----------------------7b(b9)-(b9)-9r7p5-5----5/7-(b9)------------------15------*
:-------5---5----7-5------------------------------------------8/16-----------*
:-5/7------------------------------------------------------------------------*
:----------------------------------------------------------------------------*
:
*-----------------------------------------------------------------------*
*-----------------------------------------------------------------------*
*--17p14----------------------------------------------------------------*
*--------17---17---17p15------15-----------17p15-------15---------------*
*------------------------17--------17p15----------17---------17----17---*
*-----------------------------------------------------------------------*
:  C G A D
*-----------------------------------------------------------------:
*------------------------------15-12------15--17-b18-b18-19vvr18--:
*-----------12-14-12----14b16--------14---------------------------:
*------14---------------------------------------------------------:
*-15 -----------------------------------------------------------:
*-----------------------------------------------------------------:

:right guitar (wah-wah)
:--------------------------------------------5---------------5----------------*
:------------------------------------------5-------5-----5-5---(b9)5------------*
:-7b(b9)------4--5--4----4--4b6--r4--6--7b(b9)-----7b(b9)--7b(b9)----------b(b9)7-5---5-*
:-------7------------7----------------------------------------------------7---*
:-----------------------------------------------------------------------------*
:-----------------------------------------------------------------------------*
:
*---------------------------------------------10b12---10b12---*
*-----------------------------5--8b10-------------------------*
*-------------5------4--5--7------------(b9)-7------------------*
*-6-5-----------7-----------------------(b9)-7------------------*
*-------5-7---------------------------------------------------*
*-------------------------------------------------------------*
:
*-10b12--10--8--7--8p7h8p7-5-7-5---5-7-8-7-7-5--10b12----:
*--------------------------------------------------------:
*--------------------------------------------------------:
*--------------------------------------------------------:
*--------------------------------------------------------:
*--------------------------------------------------------:
:left guitar
:----------------------------------------------------------------------------*
:--------------------------------------------------------------------10------*
:------------------------------------------------------------7--7(b9)-----12--*
:-5h7----5h7----5h7p5h7p5----5h7---------------------7-5/7-------------------*
:---------------------------------5h7---5--3-2-0---0-------------------------*
:----------------------------------------------------------------------------*
:
*---------------------------------------------------------:
*-10------------------------------------------------------:
*-----12--------------------------------------------------:
*---------13r12-10---12p10------12---12---12p10-----------:
*--------------------------12-------------------12p10-12--:
*---------------------------------------------------------:

:left and right guitar
: Em C (D)
:left guitar
:-------------------------------------------:
:-------------------------------------------:
:-------------7---------5---------7------7--:
:-9p7----7h(b9)------7h(b9)------7h(b9)--------7--:
:-------------------------------------------:
:-------------------------------------------:

left and right guitar
C G A D

:right guitar(acoustic):
: D         D         D     D      G  D     D       D     D  G
:left guitar
:-2---------2---------2-----2---------2-----2-------2-----2------:
:-3---------3---------3-----3---------3-----3-------3-----3------:
:-2---------2---------2-----2---------2-----2-------2-----2------: riff A
:-0---------0---------0-----0---------0-----0-------0-----0------:  (1)
:-------------------------------3-2-0---------3-2-0----------3-2-:
:----------------------------------------------------------------:

:right guitar(acoustic)
: A         D    A   A     D    A       D     A      A      D
:left guitar
:-----------------------------------------------------------2-----:
:-----------------------------------------------------------3-----:
:-2----2---------2----2---------2-------------2-------------2-----: riff A
:-2----2---------2----2---------2-------------2-------------0-----:  (2)
:-0----0---------0----0---------0-------------0-----------0-------:
:----------3-2-0----------3-2-0---------3-2-00--------3-2---------:

Repeat riff A ...------:
                ------:
                --4---:
                --5---:
                --5---:
                --3---:

Acoustic interlude:
:------0-----------0----0--0--------7-------0--------------0--------:
:--------0-------0--0--------0----------------8-----10-------10-----:
:----------0---0-----0------------7--(b9)-7-------7-------------------:
:------------4--------5/7-------(b9)----(b9)--(b9)------(b9)-----(b9)-------(b9):
:-------------------------------------------------------------------:
:-0---------2-------------------------------------------------------:

:-----0------------------0-------7-------8----:
:-------6-----8------------6-------6----------:
:---------5-----5------------5-------5--------:
:-----------7-----6------------7-------7------:
:-0-------------------0-----------------------:
:---------------------------------------------:

left and right acoustic guitars
Am
*   **   *   **   *   **   *   ** (rythm)

:right guitar:
: Am G E   ------------------------------------------:
:          ------------------------------------------:      
:          -5p2-2------5p2---0-2---------------------:
:          ------------------------4/5---------------:
:          -------------------------------0h2--5h7---:
:          ------------------------------------------:
:left guitar
:Am G E Am Am G E


:right guitar
:--------------------------------------------------------------------:
:--------------------------------------------------------------------:
:--------------------------------------------------------------------:
:-7---------5/7---5------------7(b9)--7------------7(b9)--7------------:
:--------------------7---6-5-3----------(b9)--8-7-5----------(b9)--8-7-5-:
:--------------------------------------------------------------------:
:left guitar
:-----------------------------------------------------------------------:
:-----------------------------------------------------------------------:
:-----------------------------------------------------------------------:
:-5/7---5------------7---5------------(b9)--7------------(b9)--7----------x-:
:----------7---6-5-3--------7---6-5-3--------(b9)--8-7-5--------(b9)--8-7-x-:
:-----------------------------------------------------------------------:

:right guitar
:---------------------------------------------------------:
:---------------------------------------------------------:
:---------------------(8-)---10p8h10p8----------------8b---:
:-10p8h10p8----10p8h10p8-------------10p8-------10---8b---:
:----------10-----------10---------------10--(b9)-8---------:
:---------------------------------------------------------:
:left guitar
:      C                                      F# F

:right guitar
:---------------------------------------------------------:
:---------------------------------------------------8b----:
:---------------------------10p8h10p8---------------8b----:
:-10p8h10p8----10p8h10p8-------------10p8-------10--------:
:----------10-----------10---------------10--(b9)-8---------:
:---------------------------------------------------------:
:left guitar
: C                                           F# F

:right guitar
:------------------------------------------------8---------------:
:----------------------------------------------8----10b11---10---:
:----------------------------10p8h10p8-10b12---------------------:
:-10p8h10p8----10p8h10p8h10--------------------------------------:
:----------10----------------------------------------------------:
:----------------------------------------------------------------:
:left guitar
:C                                                     F#    F

:right guitar
:-----------------------------------8--------------8--------------8-8-8-------:
:-11r10p8-8p7-------------------8---11-8-----------11-8---------------11b13-:
:---------------10-8-10-8-10b12------------10b12----------10b12---------------:
:-----------------------------------------------------------------------------:
:-----------------------------------------------------------------------------:
:-----------------------------------------------------------------------------:
:left guitar
:C                                                                 F      F#

:right guitar
:--------------------------------------------------------------------------:
:-13p11-13---11b13---13p11-13---11b13---13p11------11b13-11b13---r11---8---:
:---------------------------------------------12---------------------------:
:--------------------------------------------------------------------------:
:--------------------------------------------------------------------------:
:--------------------------------------------------------------------------:
:left guitar
: C                                      F

:right guitar
:-11p8--10p8--11p8--10p8--11p8--10p8--11p8--10p8--11p8--------------:
:-----8-----8-----8-----8-----8-----8-----8-----8-----8-8---11-8----:
:-------------------------------------------------------------------:
:-------------------------------------------------------------------:
:-------------------------------------------------------------------:
:-------------------------------------------------------------------:
:left guitar
:C                               F

:right guitar
:-------------------------------------------------------------------:
:-11p8--10p8--11p8--10p8--11p8--10p8--11p8--10p8--11p8--10--7---7---:
:-----8-----8-----8-----8-----8-----8-----8-----8-----8-------------:
:-------------------------------------------------------------------:
:-------------------------------------------------------------------:
:-------------------------------------------------------------------:
:left guitar
:C                            F

:right guitar
:----------------------------------------------------------------------:
:--------------------------------------------------------------------:
:----10-8----8-10-8----------------------------------------------------:
:---------10--------(8p)10-8----------------------------------------8--:
:----------------------------10\8p6h8p6h8p6---6---8(b9)--8------8h10----:
:-------------------------------------------8--------------------------:
:left guitar
: C                                      F

:right guitar
:---------------------------------------------------------:
:---------------------------------------------------------:
:---------------------------10p8h10p8----------------8b---:
:-10p8h10p8----10p8h10p8-------------10p8-------10---8b---:
:----------10-----------10---------------10--(b9)-8---------:
:---------------------------------------------------------:
:left guitar
:C                                           F# F     D#

:---------------------------------------------------------:
:----------------------------------------------------8b---:
:---------------------------10p8h10p8----------------8b---:
:-10p8h10p8----10p8h10p8-------------10p8-------10--------:
:----------10-----------10---------------10--(b9)-8---------:
:---------------------------------------------------------:
:left guitar
:C                                                    D#

:--------------------------------------------------------------:
:----------------------------------------------------8---------:
:---------------------------10p8h10p8----------------8-----0-0-:
:-10p8h10p8----10p8h10p8-------------10---------10---8---------:
:----------10-----------10---------------10--(b9)-8--------------:
:--------------------------------------------------------------:
:left guitar
: C                                                  D#

:right guitar
:-----------12---------12-12----------12-----12-12---------12-:
:-15b17---------15b17--------15b17----15b17--------15b17------:
:-------------------------------------3-----------------------:
:-------------------------------------------------------------:
:-------------------------------------------------------------:
:-------------------------------------------------------------:
:
*-12------12-12-12-12---------12-12-12-12---------12-----12-----:
*-15b17---------------15b12---------------15b17------b17---b17--:
*---------------------------------------------------------------:
*---------------------------------------------------------------:
*---------------------------------------------------------------:
*---------------------------------------------------------------:

:-------12-12-12-12-------14------14-14-14-14-15----15-15-15-15-15-*
:-15b17----------15b17----17b1(b9)--------------18b20----------------*
:------------------------------------------------------------------*
:------------------------------------------------------------------*
:------------------------------------------------------------------*
:------------------------------------------------------------------*
:
*-------15-15-15-15-15-15-15-------17-17-17-17-17-17-17-17-20-------17-17...:
*-18b20---------b20----------20b22---------b22----------------20b22------...:
*---------------------------------------------------------------------------:
*---------------------------------------------------------------------------:
*---------------------------------------------------------------------------:
*---------------------------------------------------------------------------:
:left guitar
:A G E A (G) A G E A

left and right guitar:
C Em C

:left and right guitar
:----------------------------------------:
:----------------------------------------:
:---------7----------7--------7-------7--:
:----7h(b9)-7-----7h(b9)------7h(b9)--------7--:
:----------------------------------------:
:----------------------------------------:

left guitar
C G A D

_________________________________________________
[Vous devez être inscrit et connecté pour voir cette image]
Revenir en haut Aller en bas
simbaud
Administrateur de Queenland
simbaud

Messages : 2811
Date d'inscription : 08/06/2013
Age : 23
Localisation : Queenland (rires)

Les tablatures de Queen  Empty
MessageSujet: Re: Les tablatures de Queen    Les tablatures de Queen  EmptySam 1 Fév - 10:36


My Fairy King

G|----------------|-------------|-------------|--------------|---------------|-------------|
D|------------5---|---------5---|---------5---|--------------|-----------5---|-------------|
A|----------------|-------------|-------------|--------------|---------------|-------------|
E|3-3-3-3-3-3---3-|-3-3-3-3---0-|3-3--3-3---3-|-3--3--3-3--0-|3-3--3-3-3---3-|-3--3-3-3--0-|

G|---------------|--------------|----------------|--------------|-------------|----------------|
D|-----------5---|--------------|------------7---|--------------|-------------|------------6-7-|
A|---------------|--------------|----------------|--------------|-------------|------5-7-7-----|
E|3-3--3-3-3---3-|-3--3-3-3---0-|5-5---5-5-5---5-|-5--5-5-5---5-|5-5--5-5-5-5-|5-7-8-----------|
Verse
G|----------|---------|---------|-----------------|-----------------|-----------------|
D|----------|---------|---------|-----------------|-----------------|-----------------|
A|3----5----|---------|---------|-----------------|-----------------|-----------------|
E|----------|3---let--|ring-----|-----------------|-----------------|-----------------|

G|-------|-------------|------------|------------|------------|------|------------|-----14-----|
D|-------|-------------|------------|------7--7--|------7--7--|------|8--7--5-----|7-----------|
A|7----7-|5---7---5--2-|3---2-------|------------|------------|------|---------8--|------------|
E|-------|-------------|------3--4--|5--5--------|5--5--------|5--5--|------------|5-----------|
Chorus
G|------9----|----7-5-|------------|------------|--------------|---------------|--------|------7---|
D|-----------|--------|7-----------|------------|--------------|---------------|--------|5-------5-|
A|7---7------|8-------|----4-5---6-|7--7-77---7-|5---7---5---2-|3-2-3-5--------|7-----7-|----------|
E|-----------|--------|------------|------------|--------------|--------333-7--|--------|----------|

G|------------|--------|-------------|-------------|-------------|-------------|-------------|
D|------------|--------|-----------7-|-----------7-|-----------7-|-----------7-|-------------|
A|3---2-0-----|5-------|-------------|-------------|-------------|-------------|-------------|
E|---------3--|--------|5--55-5------|5--55-5------|5--55-5------|5--55-5------|5--55--5--55-|

G|---------------|----------------|-----3-3------3-3-|----------5-|7-777-77-777-----|------------------|
D|---------------|----------------|------------------|-------5----|-------------977/|0-003-0-05-0-07---|
A|---------------|5-55--5-5-55--5-|1-11-----1-33-----|1-11-1------|-----------------|---------------057|
E|5--55--5--55-5-|----------------|------------------|------------|-----------------|------------------|

G|---------------|---------------|---------------|----------------|-----------------|------------------|
D|------7-------7|------7------7-|-----9-------9-|------9-------9-|-----------------|------------------|
A|5--55---5--55--|5--55---5-55---|7--77--7--77---|7--77---7--77---|-----------------|------------------|
E|---------------|---------------|---------------|----------------|3--33-3-3--333-3-|33-333-3-33-333-3-|

G|-----------------|--------------|--------------|--------------|-------------|--------------|
D|-----------------|--------------|-----7--8/7-7-|--------------|-------------|--------------|
A|-----------------|--------------|--------------|--------------|-------------|--------------|
E|33-333-3-33-33-3-|5-5--5-5-5--5-|5-5-----------|5-5--5-5-5--5-|-5--5-5-5--5-|5-5--5-5-5--5-|

G|-------------|--------------|-------------|--------|--------|
D|-------------|--------------|-------------|--------|--------|
A|-------------|--------------|-------------|3---let-|ring----|
E|-5--5-5-5--5-|5-5--5-5-5--5-|-5--5-5-5-5--|--------|--------|

The next section is Just Freddie Singing and playing Piano
Then Brian comes in on guitar (still no bass) Keep and ear out for the bass entering

G|3----------3-|2-----------|------3-3-3-3-|2------------|--------------|-------------|------------|
D|-------------|----2-------|----3-3-------|----2--------|--------------|-------------|------------|
A|-------------|------0---0-|1-------------|------0------|--------------|-------------|------------|
E|-------------|------------|--------------|---------555-|5--55--55--5--|5--5--5--55--|5--5--5--5--|

G|------------|------------|------------|------------|------------|------------|------------|
D|------------|------------|------------|------------|------------|------------|------------|
A|------------|------------|------------|------------|7--7--7--7--|------------|7--7--7--7--|
E|5--5--5--5--|5--5--5--5--|5--5--5--5--|5--5--5--5--|------------|5--5--5--5--|------------|

G|------------|------------|------------|------------|--------|-------------|----------|----------|
D|------------|------------|------------|------------|--------|-------------|----------|----------|
A|------------|------------|7--7--7--7--|7--7--7--7--|8----8/2|-------------|3----0----|5---------|
E|5--5--5--5--|5--5--5--5--|------------|------------|--------|2------------|----------|----------|


this song may take some time but it is worth the effort.


_________________________________________________
[Vous devez être inscrit et connecté pour voir cette image]
Revenir en haut Aller en bas
simbaud
Administrateur de Queenland
simbaud

Messages : 2811
Date d'inscription : 08/06/2013
Age : 23
Localisation : Queenland (rires)

Les tablatures de Queen  Empty
MessageSujet: Re: Les tablatures de Queen    Les tablatures de Queen  EmptySam 1 Fév - 10:37

My Fairy King

Bon, étant donné que la tablature est introuvable, voici les accords :

B - D x2 G G G - C x2
G G G-C Am
Aah, aah
C D Em/G Em x6

Em Em Em Em Em Em Em
In the land where horses born with eagle wings
G G G G G G
And honey bees have lost their stings
C G B Em
There's singing forever, ooh yeah
Em Em Em Em
Lion's den with fallow deer
G G G G
And rivers made from wine so clear
C C G5 D3
Flow on and on forever
Am Am F F
Dragons fly like sparrows thru' the air
Am Am F F
And baby lambs where Samson dares
Am Am Bb Am Gm F Am...
To go on on on on on on

Em F Dm Am D

Em Em Em Em
My fairy king can see things (He rules the air and turns the tides)
Am Am Am Am C G5
That are not there for you and me
B Em G C C C-G-D
Ooh yeah he guides the winds (My fairy king can do right and nothing wrong)

Am Am F F
Ah, then came men to savage in the night
Am Am F F
To run like thieves and to kill like knives
Am Am F F
To take away the power from the magic hand
Am Am F F A-F x4
To bring about the ruin to the Promised Land, aah, aah
Dmsus2-D x2 Bb-Gm x4 Am-F D G
Oooh
D G
They turn the milk into sour
D G D G D G
Like the blue in the blood of my veins (Why can't you see it?)
Em Am Em Am Em Am Em Am
Fire burning in hell with the cry of screaming pain
(Son of heaven set me free and let me go)
G G C C
Sea turn dry no salt from sand
G G C C
Seasons fly no helping hand
G G C C Am Am x3-Dm (quickly)
Teeth don't shine like pearls for poor man's eyes, aah

Piano Solo: C-Csus2-Am x2

C-Csus6-Csus2 repeat C C Am C
Someone (someone) has drained the color from my wings
C
Broken my fairy circle ring
Dm Dm Gm Gm Dm Gm Gdim
And shamed the king in all his pride
Dm Dm Gm Gdim Dm Gm A3-A
Changed the winds and wronged the tides
F F Bb Bb
Mother Mercury Mercury
F F Bb F
Look what they've done to me
F F Bb3 Bb
I cannot run I cannot hide
F F F F Bb Bb Bb Bb Bb Am Am Am Bbx4 Am Bb
La la la la la la la la la la la la

Outro: Bb(6-chord) Bb(4/6-chord) Bbsus4 Am-Dm Am-Dm Bb Am Bb Am-Dm Am-Dm

Am-Am-Am-Dm Am x4(arpeggios) G Am-G(arpeggios) Am-Dm x4 G-Am x4

F F Dm Dm F#m Cmsus4 C-Am D

_________________________________________________
[Vous devez être inscrit et connecté pour voir cette image]


Dernière édition par simbaud le Sam 1 Fév - 10:50, édité 1 fois
Revenir en haut Aller en bas
simbaud
Administrateur de Queenland
simbaud

Messages : 2811
Date d'inscription : 08/06/2013
Age : 23
Localisation : Queenland (rires)

Les tablatures de Queen  Empty
MessageSujet: Re: Les tablatures de Queen    Les tablatures de Queen  EmptySam 1 Fév - 10:39


Liar

intro part
|-----------------------------------------------------------------------|
|-----------------------------------------------------------------------|
|-2--------2------2-----2-----2-----2-6r4p2-----2---2----2-----2-----2--|
|-2---------------------2---2---------------4-2-2--------------------2--|
|-0----3b4---3b4----3b4-0-------3b4-------------0----3b4---3-4---3b4-0--|
|-----------------------------------------------------------------------|

|-2-------------------------------------------------------------------3---2----|
|---5-------------------------2-----3-------------------------------------3----|
|--(0)--6r4p2-------------2---2-----------2-4------2---2---2-0---2-------------|
|-------------4-2-2-2-2-2-----2---2---0h4----------2---2---2-0---2-------------|
|-----------------0-0-0-0-----0---------------3b4--0-------0-----0----------3b-|
|------------------------------------------------------------------------------|
|
|----------------------------------------------5----|
|-----7h8---7---7h8---5--------7h8---7---7h8---5----|
|-----7h9---7---7h9---6--------7h9---7---7h9---6----|
|-----7-----7---7-----7--------7-----7---7-----7----|
|-0-0-----------------------------------------------|
|---------------------------------------------------|

|------7----------------7-----9-----10-----9-----7--------|
|-8----7---8-----10-------8-----8------8-----8-----8---10-|
|-9----9-----9------9-------9-----9------9-----9-----9----|
|---------------------------------------------------------|
|---------------------------------------------------------|
|---------------------------------------------------------|

0:51
|----------------------------------------------------------|
|-10\------------------------------------------------------|
|-9\----------9--------------------------------------------|
|-7\-------9-----------------------------------------------|
|-7\-------7---5---7---5-------5-----7---5---7---5-------5-|
|------0-------------------5-7---0-------------------5-7---|

|------------------------------------------------|
|------------------------------------------------|
|-----9---7---9---7-------------9---7---9-\\\\---|
|-----9---7---9---7-------------9---7---9-\\\\---|
|-----7---5---7---5-------5-----7---5---7-trem.--|
|-0-------------------5-7---0--------------------|

|------------------------------------------------------|
|------------------------------------------------------|
|------------------------------------------------------|
|-----------------------------7b9r__7--7v--7v--7p5-----|
|-----7---5---7---5-------5------------------------7---|
|-0-------------------5-7---0--------------------------|

|-----------------------------|----|
|-----------------------------|----|
|-----------------------------|-0/-|
|-----9-----9-----9-----9-----|-/0-|
|-----7-----7-----7-----7-----|----|
|-0-0---0-0---0-0---0-0-------|----|

1:14
|--------------------------------------------------------------------|
|-------------------------------------------------7---7-9-7-9-9b10---|
|-------------------------------6---6-7-6-7-9-7-9---9----------------|
|-------------6---6-7-6-7-9-7-9---9----------------------------------|
|-7-6-7-9-7-9---9----------------------------------------------------|
|--------------------------------------------------------------------|
|
|--------------------------------------------------------------------|
|--------------------------------------------------------------------|
|-------------------------------------------6---6-7-6-7-9-7-9-9b11---|
|-------------------------6---6-7-6-7-9-7-9---9----------------------|
|-------------7-6-7-9-7-9---9----------------------------------------|
|--------------------------------------------------------------------|

I have sinned dear Father Father I have sinned
Try and help me Father
Won't you let me in?
1:20 acoustic guitar
|-----------------2-------2-------|-0---------------3p2---------0---|
|(3-------3-----)-----3-----2-3---|---------3-----------3---2-------|
|(--------------)-------2-------2-|-2-----------2-------------2---2-|
|(----0-------0-)-----------------|-----0---------------------------|
|---------------------------------|---------------------------------|
|---------------------------------|---------------------------------|

1:26
|-----------------3p2-----0-------|-----------------3p2-----0---0---|
|-3-------3-----------3-----2-----|---------3-----------3---2-------|
|---------------2-------2-----2---|-2-------------2-----------2-----|
|-----0-------0-----------------0-|-----0-----------------0-------0-|
|---------------------------------|---------------------------------|
|---------------------------------|---------------------------------|

1:32
|-----------------3p2-----0-------|-----------------5---------------|
|-3-----3-------------3-----2-----|-3-----3-------------------------|
|-2-------------2-------2-----2---|-------2-------2-----------------|
|-----0-------0-----------------0-|-----0-------0-------------------|
|---------------------------------|---------------------------------|
|---------------------------------|---------------------------------|


Liar, Nobody believes me
Liar, Why don't they leave me alone?
|---------------------------------------------------------|
|---------------2--------------------------2-------3---2--|
|-0-------------2------------0-------------2-------2---2--|
|-2-------------2------------2-------------2-------4---2--|
|-2---------0-2-0--------0-2-2---------0-2-0--------------|
|-0-----0-3------------------0-----0-3--------------------|

Sire I have stolen stolen many times
Raised my voice in anger
When I know I never should
|-2-------------------------------------------------------------|
|-3---------7------5---3---5----7------5---3---5---77-------7---|
|-2-------2/7------6---4---6----7------6---4---6---77-------5---|
|-0---------7--------------7---x7------------------77-------7---|
|-----------5------------------x5------------------55-------5---|
|---------------------------------------------------------------|

Liar oh everybody deceives me
Liar why don't you leave me alone?
|---------------------------------------------------------------3-------2-----|
|-------------------2-----------------------------------2-------3-------3-----|
|-----0-------------2----b6__r4p2-2-------0-------------2-------0---2---2-----|
|-----2-------------2------------4--------2-------------2-----------2---0-----|
|-0-2-2---------0-2-0-----------------0-2-2-------0-2-2-0-----------0---------|
|-----0-----0-3---------------------------0-----3-----------------------------|


2:17
|----------------------------------------------------------------------------------|
|-2--------------------2-----------------------------------------------------------|
|-2--------2-----3-----2--------2-b6_r4b6r4p2-4b6v-----b6_r4_p2-4_p2-4p2--2-4-2v---|
|-2--------------------2------------------------------------------------4----------|
|-0----3b4---3b4---3b4-0----3b4----------------------------------------------------|
|----------------------------------------------------------------------------------|
| Another guitar plays only A


...
2:36
|-----------------0-------------------------------|
|-2h3---0---0h2---0--------7h8---7---7h8---7------|
|-2-----0---0h2---0--------7h9---7---7h9---7------|
|-2h4---0---0h2---0----(0)-7-----7---7-----7...---|
|-0-----------------------------------------------|
|-------------------------------------------------|

D
Liar I have sailed the seas
D
Liar from Mars to Mercury
A
Liar I have drunk the wine
A
Liar time after time
B B/A
Liar you're lying to me
B/G B/F#
Liar you're lying to me
Em A
Father please forgive me
Em A
You know you'll never leave me
Em D/A A D
Please will you direct me in the right way

A
Liar liar liar liar
D
Liar that's what they keep calling me
A
Liar liar liar

3:41 solo
|--------------------------------------------|
|--------------------------------------------|
|-------------------------------14---14------|
|-9----11--12--14--14/16-----16---------16---|
|--------------------------------------------|
|--------------------------------------------|

|---------------------------------------------------------------|
|---------------------------------------------------------------|
|---------------------_____-------------------------------------|
|-14--b15--b16r14p12--14b16--b16--b16--b16--b16--b16--b16r14p12-|
|---------------------------------------------------------------|
|---------------------------------------------------------------|

|---------------------------------------------------------------------|
|---------------------------------------------------------------------|
|-14b16----16r14-12-14b16--14-----16r14-b16v---16r14-12-14b16--14v----|
|---------------------------------------------------------------------|
|---------------------------------------------------------------------|
|---------------------------------------------------------------------|

|---------------------------------------------------------------------------|
|---------------------------------------------------------------------------|
|-14b16--b16v----16r14-12-14b16-----16r14-12-14b16--14----------------------|
|---------------------------------------------------------x-16r14-12-14-----|
|---------------------------------------------------------------------------|
|---------------------------------------------------------------------------|

|---------------------------------------------------------------------|
|---------------------------------------------------------------------|
|-16r14-b16----16r14-12-14b16---16r14-12-14b16--16r14---14_b16--b16---|
|---------------------------------------------------------------------|
|---------------------------------------------------------------------|
|---------------------------------------------------------------------|

|----------------------------------------------10---------|
|---------------------------------_____-----10----13b15---|
|-16_r14--14----14r12--12---12-12-10h11-------------------|
|---------------------------------------------------------|
|---------------------------------------------------------|
|---------------------------------------------------------|

|-------10-10-------10-10-10-10-10-10-10-10-10-10-------10-10-10-10-|
|-b15---------b15---------------------------------b15---------------|
|-------------------------------------------------------------------|
|-------------------------------------------------------------------|
|-------------------------------------------------------------------|
|-------------------------------------------------------------------|

|-------10-10-10-10-10-------------------------------------------------|
|-b15------------------13p10----10-------------------------------------|
|----------------------------13----13p12p10-12p10----------------------|
|-------------------------------------------------12p10-12p10----------|
|-------------------------------------------------------------12p10\---|
|----------------------------------------------------------------------|


Listen are you gonna listen?
Mama I'm gonna be your slave
All day long
Mama I'm gonna try behave
All day long
|---------------|
|---------------|
|---------12\---|
|---------12\---|
|---------11\---|
|-0-0-0-0-------|


Mama gonna be your slave
All day long
I'm gonna serve you till your dying day
All day long
I'm gonna keep you till you dying day
All day long
I'm gonna kneel down by your side and pray
All day long and pray
All day long and pray
All day long all day long all day long
All day long all day long all day long


4:57
|-------------------------------------------------------|
|-------------------------------------------------------|
|-------------------------------------------------------|
|---------------------------------------------9-7---9---|
|---------------------------------------------7-5---7---|
|-3---0---0---0-0-4p0---0---0-0-5p0---0---0-0-----------|

bass
|---------------------------------------------------|
|---------------5---4---5---7---9---11-11-12---13---|
|-...-7-5---7---------------------------------------|
|---------------------------------------------------|

E5 D5 C5 C5
|-------------|----|----------------------------------------------------|
|-14-16-17-16-|-0/-|-14---12---10---9---7---5---4--42---0---------------|
|-------------|-/0-|----------------------------------------3---2---0---|
|-------------|11 X|----------------------------------------------------|

B5
|-------------------------------------|
|-------------------------------------|
|-2---0-----------2--22-2-2--22-2-2---|
|---------3---2-----------------------|

Em C A/C# A
All day long all day long all day long
D
Liar liar they never let you win
D
Liar liar everything you do is sin
A
Liar nobody believes you
A
Liar they bring you down before you begin
B B/A
Now let me tell you this
B/G B/F# F G D
Now you know you could be dead before they let you...

5:54
|----------------------------------------------------------------------|
|----------------------------_____-------------------------------------|
|------7--7--7/9----7--6--7--6h7p6-----6--7--h9---7--9--9/11---9---7---|
|-9---------------------------------9----------------------------------|
|----------------------------------------------------------------------|
|----------------------------------------------------------------------|

|---------------------------------------------------------------------------------------------10\--|
|---------------------------------------------------------------------------------------------10\--|
|-5h7p5-----7---5---4---5---7h9phph..--5h7phph...-4h5phph...-2h4phph...-4h6phph...-2h4phph...--7\--|
|--------------------------------------------------------------------------------------------------|
|--------------------------------------------------------------------------------------------------|
|--------------------------------------------------------------------------------------------------|

_________________________________________________
[Vous devez être inscrit et connecté pour voir cette image]
Revenir en haut Aller en bas
simbaud
Administrateur de Queenland
simbaud

Messages : 2811
Date d'inscription : 08/06/2013
Age : 23
Localisation : Queenland (rires)

Les tablatures de Queen  Empty
MessageSujet: Re: Les tablatures de Queen    Les tablatures de Queen  EmptySam 1 Fév - 17:04


The Night Comes Down

|---|-------------------------------------------------------------------------|
|---|-------------------------------------------------------------------------|
|-9-|-------------------------------------------------------------------------|
|-9-|-------------------10-9-7----7------------------------10-9-7----7--------|
|-7-|---7-9-10-7-9----7--------10---9-10-7---7-9-10-7----7--------10---9-10-7-|
|-0-|-0------------10----------------------0----------10----------------------|

|---------------------------------------------------------------------------|
|---------------------------------------------------------------------------|
|---------------------------------------------7----7-9-7-9-11-9-11-12-11-12-|
|-----------------7------7-9----7-9-10-7-9-10---10--------------------------|
|---7-9-10-7-9-10---9-10-----10---------------------------------------------|
|-0-------------------------------------------------------------------------|

|------------------------------------------------------------------|
|-------________---------------------------------------------------|
|-14-12-14h15p14-14-12----------------_____------------------------|
|----------------------14p12----12-14-14p12----------_____---------|
|----------------------------14-------------14-12-10-12p10----10-x-|
|----------------------------------------------------------12------|

|-------|--------|----|----------------------0---|
|-------|--------|----|----------------------0---|
|-------|--------|-0/-|----------------------0---|
|-5-----|-5b-7---|-/0-|-5b-7-----------------2---|
|---7-7-|------7-|----|------7-5-------------2---|
|-------|--------| 5X |----------7-6-5-3-0---0---|

|-----0---------0----------0-----0-|---0-----0-----0-0--------0------0-|
|---7-----7-7-----7---8------8-----|-----7-----7-----7---8------8------|
|-7-----7-----7---------11-----11--|-7-----7-----7---------11-----11---|
|----------------------------------|-----------------------------------|
|----------------------------------|-----------------------------------|
|----------------------------------|-----------------------------------|

|-------0---------0---0----0---0----0---|-----0--------0--------0-----0------|
|---------8---------8--------8--------8-|-------8--------8--------8-----8----|
|----11--------11-------11-------11-----|---9-------11-------11-----------11-|
|-10--------10--------------------------|-9-------9--------9--------9--------|
|---------------------------------------|------------------------------------|
|---------------------------------------|------------------------------------|

|-------0---------0---------0---------0---|-0-...----7-7---|
|---------8---------8---------8---------8-|-7-...----7-7---|
|----11--------11--------11--------11-----|-9-...----8-8---|
|-10--------10--------10--------10--------|-10...----9-9---|
|-----------------------------------------|-0-...----9-9---|
|-----------------------------------------|----------7-7---|

|left guitar
|------------------------------|
|-5------5--------7--6----5___-|
|------------7-----------------|
|------------------------------|
|------------------------------|
|------------------------------|
|right guitar
|-----------------------------------------------|
|-(12)b14-------b14-r12--10---12--b14----12b14--b14--b14v--|
|-------------------------------------------------|
|-------------------------------------------------|
|-------------------------------------------------|
|-------------------------------------------------|
|midle guitar
|-------------------------------|
|-------------------------------|
|-------------------------------|
|-7------\5---4----7--6----7----|
|-------------------------------|
|-------------------------------|
|acoustic guitar
| Am D C# |---------------------|riff A
| |-x-2---x-3----5---5--|
| |-x-2---x-2----6---6--|
| |-x-2---x(4)---5---5--|
| |---------------------|
| |---------------------|

acoustic guitar When I was..
|-5---5---5---5---5---5---5---5---5---5---5---5---3---3---2---2--|
|-7---7---7---7---7---7---7---7---7---7---7---7---3---3---3---3--|
|-6---6---6---6---6---6---6---6---6---6---5---5---4---4---2---2--|
|----------------------------------------------------------------|
|----------------------------------------------------------------|
|----------------------------------------------------------------|


G C (G)

|-----2----h3---3---3/5-5---7---7---|
|-----3---------------7-7---8---8p7-|
|-2---2---0h4---5---4/6-6---7---7---|
|-0---------------------------------|
|-----------------------------------|
|-----------------------------------|

|-5---5---5---5---3---3--|
|-7---7---7---7---3---3--|
|-6---6---5---5---4---4--|
|------------------------|
|------------------------|
|------------------------|

riff A

|-5---5---5---5---2---2---1---1--|
|-7---7---7---7---3---3---3---3--|
|-6---6---5---5---4---4---3---3--|
|--------------------------------|
|--------------------------------|
|--------------------------------|

D Dmaj7 D7 G
G A D G D (C# B)
F#m G D Dmaj7 D7
G A D G D (C# B)
F# G F# Em

fill 1:58
|left guitar
|----------------------|
|----------------------|
|----------------------|
|-7--------------------|
|-----9---\4----5---5..|
|----------------------|
|right guitar
|--------------------------------------|
|--------------------------------------|
|--------------------------------------|
|-16r14-12--\7----9---9---7---7---7...-|
|--------------------------------------|
|--------------------------------------|
|midle guitar
|--------------|
|--------------|
|--------------|
|--------------|
|--------------|
|-10-9-7---\2..|

fill 2:
|left guitar
|----------------------------|
|----------------------------|
|----------------------------|
|----------------------------|
|-12--\9---\4-----5---4---2--|
|----------------------------|
|right guitar
|------------------------|
|------------------------|
|------------------------|
|-16r14-12-\7---9--7--5--|
|------------------------|
|------------------------|
|midle guitar
|--------------------------|
|--------------------------|
|--------------------------|
|--------------------------|
|--------------------------|
|-10-9-7---\2--2--3--2--0--|

acoustic guitar
|-5---5---5---5---5---5---5---5---3---3---2---2--|
|-7---7---7---7---7---7---7---7---3---3---3---3--|
|-6---6---5---5---6---6---5---5---4---4---2---2--|
|------------------------------------------------|
|------------------------------------------------|
|------------------------------------------------|

G C

|-------------2------------------------|riff B
|-0-------3---3---3--------------------|
|-0---0---2h4-2---0--------------------|
|-----0----------------4-2-0---0-2-0---|
|--------------------------------------|
|--------------------------------------|

|-5---5---5---5---3---3--|
|-7---7---7---7---3---3--|
|-6---6---5---5---4---4--|
|------------------------|
|------------------------|
|------------------------|

Bm Am D C#

|-----------------------------|
|-x-/7--5--3---2h3-2---2---4--|
|-x------------2---2---2---2--|
|-x-/7--5--4---2h4-2---2---3--|
|-0---------------------------|
|-----------------------------|

|-5---5---5---5---2---2---1---1--|
|-7---7---7---7---3---3---3---3--|
|-6---6---5---5---4---4---3---3--|
|-----------------------------3--|
|--------------------------------|
|--------------------------------|

|--------------------------------|
|-3---3---3----------------------|
|-2--h4---2---0------------------|
|-0-------0-------4-2-0---0-2-0--|
|--------------------------------|
|--------------------------------|
G A D G D (C# B) fill 3
F#m G D Dmaj7 D7
G A D G D (C# B) fill 4
A Bm A G ? G ?
D (x x 9 7 x 10)

fill 3:10
|left guitar
|----------------------|
|----------------------|
|----------------------|
|----------------------|
|-12\10-9--\4---5---5..|
|----------------------|
|right guitar
|---------------------------------|
|---------------------------------|
|---------------------------------|
|-16r14-12--\7-----9---9---7---7..|
|---------------------------------|
|---------------------------------|
|midle guitar
|-----------------------------|
|-----------------------------|
|-----------------------------|
|-12-11-9-7-4----6---6---5-...|
|-----------------------------|
|-----------------------------|

fill 3:22
|left guitar
|-----------------------------|
|-----------------------------|
|-----------------------------|
|-----------------------------|
|-12---9---\4-----5---4---2---|
|-----------------------------|
|right guitar
|-----------------------------|
|-----------------------------|
|-----------------------------|
|-16r14-12--\7-----9---7---5--|
|-----------------------------|
|-----------------------------|


acoustic guitar chords:
xx5430 02230 x7998x x_x_12_0_0_10


acoustic guitar
|-------------------------------------------------------------------------|
|-------------------------------------------------------------------------|
|-------------------------------------------------------------------------|
|-----------------10-9-7----7--------------------------10-9-7----7--------|
..7-9-10-7-9----7--------10---9-10-7---7-9-10-7-9----7--------10---9-10-7-|
|------------10----------------------0------------10----------------------|

|---------------------------------------------------------------------------|
|---------------------------------------------------------------------------|
|-----------------------------------------------7------7----7-------------7-|
|-----------------7------7-9----7-9-10-(0)-9-10---9-10---10---9-10-9-9-10---|
|---7-9-10-7-9-10---9-10-----10---------------------------------------------|
|-0-------------------------------------------------------------------------|

|---------------------_____7-______----------------------------------------|
|---------------------7h8px--7h8p7--______---------------------------------|
|---7-9-7-9-7-9-7-9-7-------------9-7h9p7------___-------------------------|
|-9--------------------------------------9-7-5-7p5---5---------------------|
|--------------------------------------------------7---7-7p5---5-----------|
|------------------------------------------------------------7---7-7-5-3-0-|


|---0-----0-------0----------------0-|---0-----0-----0-0-----0-0------0-|
|-----7-----7---7-----8-------8------|-----7-----7-------8-------8------|
|-7-----7-----7---------11------11---|-7-----7-----7-------11------11---|
|--------------------------12--------|----------------------------------|
|------------------------------------|----------------------------------|
|-?????????????----------------------|----------------------------------|

|--------------0---------0---------0------|---0--------0-------0--------0------|
|----8----8------8---------8---------8----|-----8--------8-------8--------8----|
|------11----------11--------11--------11-|-------11-------11------11-------11-|
|-10--------10--------10--------10--------|-9--------9--------9-------9--------|
|-----------------------------------------|------------------------------------|
|-----------------------------------------|------------------------------------|

|----------0------0----0-----|
|------------8---------------|
|----------------------------|
|-???...10-----10---10---10..|
|----------------------------|
|----------------------------|

Am Em

_________________________________________________
[Vous devez être inscrit et connecté pour voir cette image]
Revenir en haut Aller en bas
simbaud
Administrateur de Queenland
simbaud

Messages : 2811
Date d'inscription : 08/06/2013
Age : 23
Localisation : Queenland (rires)

Les tablatures de Queen  Empty
MessageSujet: Re: Les tablatures de Queen    Les tablatures de Queen  EmptySam 1 Fév - 17:05


Modern Times Rock'n'Roll

|-----------------|
|-----------------|
|-----------------|
|-9---7---9-------|
|-7---5---7-------|
|-----------------|

* . . . * . . . * . . . * . . .
|-----------------------------------------------------------------|
|-----------------------------------------------------------------|
|-----------------------------------------------------------------|
|-----------------------------------------------------7---9-------|
|-----7-7-5h7-7-7-5h7-7-7-5-------5h7-7-7-5-----------5---7-------|
|-5h7-----------------------7-3-------------7-3---0---------------|

Verse
* . . . * . . . * . . . * . . .
|-----------------------------------------------------------------|
|-----------------------------------------------------------------|
|-----------------------------------------------------------------|
|-----------------------------------------------------7---9-------|
|-5h7-7-7-5h7-7-7-5h7-7-7-7-7-7-7-5h7-7-7-5-----------5---7-------|
|-------------------------------------------7-3---0---------------|

* . . . * . . . * . . . * . . .
|-----------------------------------------------------------------|
|-----------------------------------------------------------------|
|-----------------------------------------------------------------|
|-----------------------------------------------------------------|
|-5h7-7-7-5---------------5h7-7-7-5h7-7-7-5-----------------------|
|-----------7-3---0-------------------------7-3---0---------------|

* . . . * . . . * . . . * . . .
|-----------------------------------------------------------------|
|-2---------------------------------------------------------------|
|-2-------------------------------2v------------------------------|
|-2-------------------------2h4-----------------------------------|
|-0---------------------2h4---------------------------------------|
|-----------------------------------------------------------------|

* . . . * . . . * . . . * . . .
|-----------------------------------------------------------------|
|-----------------------------------------------------------------|
|---------------------------------4---6b8b8b8b8b8b8r6p4---4-------|
|-----------------------4-6p4-6p4-----------------------6---------|
|-2-2-2-2-2-2-2-2-4-5-6-------------------------------------------|
|-----------------------------------------------------------------|

* . . . * . . . * . . . * . . .
|-------------------------------------------------------------------|
|---7-7-7-7-7-7-7-7-------12--1210-----12--101010---12\-------------|
|---7-7-7-7-7-7-7-7-------12--1210-----12--101010---12\-------------|
|-0-7-7-7-7-7-7-7-7---------------------------------12\-------------|
|-------------------------------------------------------------------|
|-------------------------------------------------------------------|


riff:
* . . . * . . . * . . . * . . .
|-----------------------------------------------------------------|
|-----------------------------------------------------------------|
|-----------------------------------------------------------------|
|-----------------------------------------------------7---9-------|
|-5h7-7-7-5h7-7-7-5h7-7-7-5-------5h7-7-7-5-----------5---7-------|
|---------------------------7-3-------------7-3---0---------------|


Verse:
* . . . * . . . * . . . * . . .
|-----------------------------------------------------------------|
|-----------------------------------------------------------------|
|-----------------------------------------------------------------|
|-----------------------------------------------------------------|
|-5h7-7-7-5h7-7-7-5h7-7-7-5h7-7-7-5h7-7-7-5h7-7-7-7---5---7--/12--|
|-----------------------------------------------------------------|

* . . . * . . . * . . . * . . .
|-----------------------------------------------------------------|
|-----------------------------------------------------------------|
|-----------------------------------------------------------------|
|-------------------------5---------------------------------------|
|-5h7-7-7-5-------5h7-7-7-5h7-5---7---7-7-7-7-7-7-7---5---7-------|
|-----------7-6---------------------------------------------------|

* . . . * . . . * . . . * . . . *
|-----------------------------------------------------------------|
|-2---------------------------------------------------------------|
|-2---------------------------------------------------------------|
|-2---------------7-5-----------------------------------7-9-7---7-9b
|-0-------------------7-6-5-3-----------------------7-9-------9---|
|-----------------------------5-3-5v-------------/9---------------|

* . . . * . . . * . . . * . . .
|------------------------------------------------------------------------|
|----------------------------------------------------------__3__---------|
|----------------------------------------__3__-----7-----7-9p7---7\------|
7-9b10--9-----------9-7----------------7-9p7---7-9---9-9-------9---------|
|-----------------------9-8-7-5-7-5-/9-------9---------------------------|
|------------------------------------------------------------------------|

* . . . * . . . * . . . * . . .
|---------------------------------------------------------------------------------------|
|---------------------------------------------------------------------------------------|
|------------------------------------------------12-10----------------------------------|
|/12-12-12-12-12-12-12-12-12-12-12-12-12---12-12-------12-10----------------------------|
|------------------------------------------------------------12-11-10-8-----------------|
|-----------------------------------------------------------------------10--------------|


Chorus:
* . . . * . . . * . . . * . . .
|-----------------------------------------------------------------|
|-----------------------------------------------------------------|
|-----------------------------------------------------------------|
|-5---------------------------------------------------------------|
|-5-------------------------------0-------3-------5-------3-------|
|-3---------------------------------------------------------------|

* . . . * . . . * . . . * . . .
|-----------------------------------------------------------------|
|-----------------------------------------------------------------|
|-----------------------------------------------------------------|
|-5---------------------------------------------------------------|
|-5-------------------------------0-------3-------5-------3-------|
|-3---------------------------------------------------------------|

* . . . * . . . * . . . * . . .
|-----------------------------------------------------------------|
|-----------------------------------------------------------------|
|-----------------------------------------5---7p5-----------------|
|-5h7-7-7-5h7-7-7-5h7-7-7-5h7-7-7-5h7-7-7---7-----7v--------------|
|-----------------------------------------------------------------|
|-----------------------------------------------------------------|


Solo chords:
| G5 | - | - | - |

| G5 | - | - | - |

| C5 | - | - | - |

| D5 | - | - | - |


Verse
* . . . * . . . * . . . * . . .
|-----------------------------------------------------------------|
|-----------------------------------------------------------------|
|-----------------------------------------------------------------|
|-----------------------------------------------------------------|
|-5h7-7-7-5h7-7-7-5h7-7-7-5-------5h7-7-7-5-----------5---7-------|
|---------------------------7-3-------------7-3---0---------------|

* . . . * . . . * . . . * . . .
|-----------------------------------------------------------------|
|-----------------------------------------------------------------|
|-----------------------------------------------------------------|
|-----------------------------------------------------------------|
|-5h7-7-7-5h7-7-7-5h7-7-7-5-------5h7-7-7-5-----------5---7-------|
|---------------------------7-3-------------7-3---0---------------|

* . . . * . . . * . . . * . . . *
|-----------------------------------------------------------------------|
|-2---------------------------------------------------------------------|
|-2-------------------__3__-----5---------------------------9-11p9----9-9v
|-2-----------------5-7p5---5h7---7-7---------------9h11-11--------11---|
|-0---------------7-------7---------------------------------------------|
|-----------------------------------------------------------------------|

* . . . * . . . * . . . * . . .
|------------------------------------------------------------------|
|------------------------------------------------------------------|
|-9v--------------8v-----------------------------------------------|
|--------------------------------7/9V--------------9-9-9-9-9\------|
|------------------------------------------------------------------|
|------------------------------------------------------------------|

* . . . * . . . * . . . * . . .
|---------------------------------5-------------------------------|
|---------------------------------5-7-7-7-7-----------------------|
|/7-7-7-7-7---7-7-7---7-7-7-7-------7-7-7-7---7---9---------------|
|-----------------------------7---------------7---9---------------|
|---------------------------------------------5---7---------------|
|-----------------------------------------------------------------|


guitar solo:
|-----------------_____-15-15-----15-15-----15-15--------------------|
|-18b20v----------18b20-------b20-------b20-------b20---18-18---15---|
|--------------------------------------------------------------------|
|--------------------------------------------------------------------|
|--------------------------------------------------------------------|
|--------------------------------------------------------------------|


|-18p15----17p15----18p15-------------------15-15-------15-15------15-15-------15-15-|
|-------15-------15-------15----------18b20-------18b20------18b20-------18b20-------|
|------------------------------------------------------------------------------------|
|------------------------------------------------------------------------------------|
|------------------------------------------------------------------------------------|
|------------------------------------------------------------------------------------|

|-----------------------------------------------------------------------------|
|-18p15----15----------18b20v---------b20r18p16-------------------------------|
|-------18----18p17p15--------------------------17p15-------------------------|
|-----------------------------------------------------17-16-15-13----15p13----|
|-----------------------------------------------------------------15-------15\|
|-----------------------------------------------------------------------------|

|------------------------------------------------------20b22vv--------|
|---------------------___3____-------18-20b22v---20-18----------------|
|------------------17-19p17----17-19----------------------------------|
|-----15----15-/19----------19---------------------------------0\\tr//|
|-/17----17-----------------------------------------------------------|
|---------------------------------------------------------------------|

_________________________________________________
[Vous devez être inscrit et connecté pour voir cette image]
Revenir en haut Aller en bas
simbaud
Administrateur de Queenland
simbaud

Messages : 2811
Date d'inscription : 08/06/2013
Age : 23
Localisation : Queenland (rires)

Les tablatures de Queen  Empty
MessageSujet: Re: Les tablatures de Queen    Les tablatures de Queen  EmptyDim 2 Fév - 11:52


Son And Daughter

|---------------------------------------------------------------------|
|---------------------------------------------------------------------|
|---------------------------------------------------------------------|
|-----------------------------5-------------------------------5-------|
|-------------5---5-5-5-5-5h7-----7-----------5---5---5-5-5h7-----7---|
|-0---0-0-x---------------------------0-0-5/7-------------------------|

|--------------------------------------------------------------------------|
|--------------------------------------------------------------------------|
|-----------------------------------------7---7---7-7----------------------|
|-------------------------5---5-5-5/7-7h9-------------9p7-9p7-5b-----------|
|-7-7-----5---5---5-5-5h7------------------------------------------7-7-7v--|
|-----5/7------------------------------------------------------------------|

|----------------------------------------------------------------|
|--------------------------------------------12------------------|
|------------------------------9---9-9-11b13------13r11p9----9--/|
|-------------9---9-9-11---*-*----------------------------11-----|
|-/11---11-11----------------------------------------------------|
|----------------------------------------------------------------|

|-------------------------------------------------------------------------------------------|
|-------------------------------------------------------------------------------------------|
|---------------------______----12b------------------------------------_______---12b--------|
|-------12---12h13p12-121212h14-------14-14-14----------12---12---12---121212h14-------14---|
|-12h14----------------------------------------12-12h14-------------------------------------|
|-------------------------------------------------------------------------------------------|

|-------------------------------------------------------------12---------------|
|----------------------------------------------------------------15p12---------|
|------------------------------------12b-----------12-14b16------------14b16---|
|-14----------12---12-12-12-12-12h14-------14----------------------------------|
|----12-12h14-----------------------------------12-----------------------------|
|------------------------------------------------------------------------------|

|----12------------------12-------------------------------------------------|
|-12----15p12---------12----15p12-14p12-13p12-13p12-------------------------|
|-------------14b16---------------------------------15p14p12----12h14p12----|
|------------------------------------------------------------14----------14p|
|---------------------------------------------------------------------------|
|---------------------------------------------------------------------------|

|------------------------------------------------------------|
|------------------------------------------------------------|
|-------------------------------12h14p12---------------------|
|p12h14p12h14p12----12----12-------------14-12h14p12----12---|
|----------------14----14----14----------------------14------|
|------------------------------------------------------------|

|--------------------------------------------------------------------_______-------|
|-----------------------------------------15b17v---15-12-15p12h15p12-15p12---------|
|-------------------------------------------------------------------------15p14p13-|
|-14---12-14-12--------------------------------------------------------------------|
|---------------14-13-12-10------------x-------------------------------------------|
|---------------------------12-10v-----x-------------------------------------------|

|-------|-----------------|----|------------------12-15-b17vv----|
|-12-15-|-b17-b16-b17-b16-|----|-b17___0vvv----15----------------|
|-------|-----------------|-0/-|---------------------------------|
|-------|-----------------|-/0-|---------------------------------|
|-------|-----------------|----|---------------------------------|
|-------|-----------------|15 X|---------------------------------|

|-15---12------------------------------------------------------------------------------|
|----------15--12--________------------------------------------------------------------|
|------------------15p14p12----14--12--------------------------------------------------|
|---------------------------14---------14-12-------------------------------------12----|
|--------------------------------------------14-------14\--------10h12p10h12/14-----14-|
|-----------------------------------------------12-12--------12------------------------|

|---------------------------------------------------------------------------|
|---------------------------_________---------------------------------------|
|--------------------------------12---12vv\--2b3__r2-----0------------------|
|---------------------12----12h14--14----------------------2-0--------------|
|-----10h12p10h12/14-----14------------------------------------2-1-0--------|
|-12-----------------------------------------------------------------3-0----|

_________________________________________________
[Vous devez être inscrit et connecté pour voir cette image]
Revenir en haut Aller en bas
simbaud
Administrateur de Queenland
simbaud

Messages : 2811
Date d'inscription : 08/06/2013
Age : 23
Localisation : Queenland (rires)

Les tablatures de Queen  Empty
MessageSujet: Re: Les tablatures de Queen    Les tablatures de Queen  EmptyDim 2 Fév - 11:59


Jesus

Intro/Verse 1 and 2 and 4/Solo Rhythm part 1
Bm Bm F# Bm
e|----------2---------|
B|3----3----2----3----|
G|4----4----3----4----|
D|4----4----4----4----|
A|2----2----4----2----|
E|----------2---------|

Chorus |At the end of each chorus:
D A G A D A G F#
e|-----5----3----5----||-----5----3----2----|
B|7----5----3----5----||7----5----3----2----|
G|7----6----4----6----||7----6----4----3----|
D|7----7----5----7----||7----7----5----4----|
A|5----7----5----7----||5----7----5----4----|
E|-----5----3----5----||-----5----3----2----|

Verse 3 |Last time play:
C C G C C C G D
e|--------------------||--------------------|
B|--------------------||--------------------|
G|5----5---------5----||5----5--------------|
D|5----5----5----5----||5----5----5----7----|
A|3----3----5----3----||3----3----5----7----|
E|----------3---------||----------3----5----|

Solo Rhythm part 3
Play this once: ||Repeat this several times:
E D E D E D
e|--------------------||----------------|
B|--------------------||----------------|
G|9----7----9----7----||9----7--7--7----|
D|9----7----9----7----||9----7--7--7----|
A|7----5----7----5----||7----5--5--5----|
E|--------------------||----------------|

Solo Rhythm part 4 ||Hold this E for a long time:
E D C# C B E
e|-------------------------||-----|
B|-------------------------||-----|
G|9----7----6----5----4----||9----|
D|9----7----6----5----4----||9----|
A|7----5----4----3----2----||7----|
E|-------------------------||-----|

Solo Rhythm part 5 (play once)
E E E E
e|----------------|
B|----------------|
G|9--9----9--9----|
D|9--9----9--9----|
A|7--7----7--7----|
E|-----------------|

_________________________________________________
[Vous devez être inscrit et connecté pour voir cette image]
Revenir en haut Aller en bas
simbaud
Administrateur de Queenland
simbaud

Messages : 2811
Date d'inscription : 08/06/2013
Age : 23
Localisation : Queenland (rires)

Les tablatures de Queen  Empty
MessageSujet: Re: Les tablatures de Queen    Les tablatures de Queen  EmptyDim 2 Fév - 12:00

Seven Seas Of Rhye

|-----14-17----15-19----14-17----15-19----14-17----|
|--15-------15-------15-------15-------15-------15-|
|--------------------------------------------------|
|--------------------------------------------------|
|--------------------------------------------------|
|--------------------------------------------------|
solo
|---------------------------------18----------------------18----|
|-------------------------------21------r2221-18--------21------|
|----------------18--2018-----------------------20182018--------|
|--------18--20-------------20----------------------------------|
|18--20---------------------------------------------------------|
|---------------------------------------------------------------|

|--------------18---18------------------------------------------|
|-b23__r21p1821--p21--p21---------------------------------------|
|--------------------------20b22__r201820182022__r20p18--18br---|
|---------------------------------------------------------------|
|---------------------------------------------------------------|
|---------------------------------------------------------------|

|----------------21b23------18-------------------------19b21---|
|-------------------------21--2118-----------------------------|
|-20p18----18br-------------------21201820182018---20----------|
|------20---------------------------------------18-------------|
|--------------------------------------------------------------|
|--------------------------------------------------------------|

_________________________________________________
[Vous devez être inscrit et connecté pour voir cette image]
Revenir en haut Aller en bas
simbaud
Administrateur de Queenland
simbaud

Messages : 2811
Date d'inscription : 08/06/2013
Age : 23
Localisation : Queenland (rires)

Les tablatures de Queen  Empty
MessageSujet: Re: Les tablatures de Queen    Les tablatures de Queen  EmptyDim 2 Fév - 12:05


Mad The Swine


D Dmaj7
Been here before a long time ago
Am D Em C Em D Em
But this time I wear no sandals
Em C Am7 G A
Ages past I gave all you people
D(add9) Dsus4 D
Food and water

D Dmaj7 Em
Three feet tall so very small I'm no trouble
G/D C Am
I bring thunder lightning sun and the rain
G A Dsus4 D Dadd9
For all the people in the land

D
A message of love
Dmaj7 Am ...
I bring you from up above
G A Bm
All good children gather around
D G A (G)A
Come join your hands and sing along

D
They call me mad the swine
Bm
I guess I'm mad the swine
Em A
I've come to save you save you
A7sus4
Mad the swine
Am7
Mad the swine
G A Bm
So all you people gather around
D G A G A
Hold out your hands and praise the Lord

D Dmaj7 Em
I woke up on the water just as before
G/D C Am
I'll help the meek and the mild and believers and the blind
G A Dsus4 D Dadd9
And all the creatures great and small

D Dmaj7 Am
Let me take you to the river without a ford
G D/F# Em
Oh and then one day you realise
G D/F# Em
You're all the same we've been in life
G D/F# Em A7sus4 A7
All I've come to say just like before

D
They call me mad the swine
Bm
I'm mad the swine
Em A
I've come to save you save you
A7sus4
Mad the swine
Am7
Mad the swine
G A Bm
So all you people gather around
D G A G A
Hold out your hands and praise the Lord

Ooh

Oh now
solo:
D
Bm
Em A
A7sus4
Am7
G A Bm
So all you people gather around
D G A G A
Hold out your hands and praise the Lord

Don't ever fail me

D
Mad the swine
Bm
Mad the swine
Em A
I've come to save you save you

Oh now

A7sus4
Mad the swine
Am7
Mad the swine
G A Bm
So all you people gather around
D G D
Hold out your hands and praise the Lord

G D
Hands and praise the Lord
G D
Praise the Lord
G D
G D
G D

I'll get down on my knees and praise the Lord



_________________________________________________
[Vous devez être inscrit et connecté pour voir cette image]
Revenir en haut Aller en bas
Contenu sponsorisé




Les tablatures de Queen  Empty
MessageSujet: Re: Les tablatures de Queen    Les tablatures de Queen  Empty

Revenir en haut Aller en bas
 
Les tablatures de Queen
Revenir en haut 
Page 1 sur 1
 Sujets similaires
-
» retro - Queen of hearts complexion soap
» Sweet Amanite Phalloïde Queen -UC-
» Ce que vous détestez chez Queen
» recherche lit écolo
» I'm Queentastic • UC

Permission de ce forum:Vous ne pouvez pas répondre aux sujets dans ce forum
Queenland - Le forum :: Queen :: Leurs Albums ... :: Queen-
Sauter vers: