AccueilS'enregistrerConnexionLes tablatures de Queen II Empty

Partagez
 

 Les tablatures de Queen II

Aller en bas 
AuteurMessage
simbaud
Administrateur de Queenland
simbaud

Messages : 2811
Date d'inscription : 08/06/2013
Age : 23
Localisation : Queenland (rires)

Les tablatures de Queen II Empty
MessageSujet: Les tablatures de Queen II   Les tablatures de Queen II EmptyDim 2 Fév - 13:50


Procession

Fingerstyle

Arranged for solo guitar.
Drop-D tuning (DADGBE).


* . * . * . * . * .
|-3-------5-----6-6-----------------------|
|-3-------7-----8-8-----------------------|
|-3-------7-----7-7-----------------------|
|-----------------------------------------|
|-----------------------------------------|
D-----------------------------------------|

* . * . * . * . * . * . * . * .
|-3---5-6-5-------6---5---3-------3-------2-----------------------|
|-5-------6-------6-------6---5---3-------3-----------------------|
|-5-------5-------7-------5-------5-4-----2-----------------------|
|-------------------------------------7-5-0-----------------------|
|-------------------------------------------------0---------------|
D---------------------------------------------------------0-------|

* . * . * . * . * . * . * .
|-1-----0-1-----------------------1----(0)1---------------|
|-3-----2-3-----------------------3-----2-3---------------|
|-2-------2-----------------------3-----2-3---------------|
|-------------------------0-------------------------------|
|---------------------------------1-----------------------|
D-0-------------------------------------------------------|

* . * . * . * . * . * . * . * (sustain duration shortened)
|-3-------0-------1---0-------------------------------------------|
|-3-------1-------1-------3-------1-------3-----------------------|
|-4-------0-------2-------5---4---2-------0-----------------------|
|-------------------------5---3---2-------0-----------------------|
|-2-------3-----------------------0-------------------------------|
D-----------------3-------5---------------5-----------------------|

* . * . * . * . * . * . * . * .
|-----------------0-------2-----3-3-------------------------------|
|-3---------------1-------3-----3-3-------3-------3-------3-------|
|-4---------------0-------2-----4-4-------2-------4-------0-------|
|-5---------------------------------------4-------5-------3-------|
|-----------------------------------------5-------5-------5-------|
|-----------------------------------------------------------------|

* . * . * . * . * . * . * . * .
|-0-------0-------1-------------3-3-------3-----------------------|
|-3-------1-------1-------0-----5-5-------3-------5-------3-------|
|-0-------0---------------------5-5-------4-------5-------4-------|
|-----------------0-----------------------5-------5-------5-------|
|-3---------------3-------------3-3---------------3-------2-------|
|-----------------------------------------------------------------|

* . * * . * . * . * * * *
|---------0--2--3--3-------0---------------0--2--3--3--5--7--7--8--10--10------|
|-1-------1--3--5--5-------3-----1-1-------1--3--5--5--7--8--8-10--12--10------|
|-2-------2--4--5--5-------4-----2-2-------0--2--4--5--7--9--7--9--11--11------|
|-2------------------------------2-2-------------------------------------------|
|-0------------------------------0-0-------0-----------------------------------|
|--------------------------2-------------------------------------------0-------|

_________________________________________________
[Vous devez être inscrit et connecté pour voir cette image]
Revenir en haut Aller en bas
simbaud
Administrateur de Queenland
simbaud

Messages : 2811
Date d'inscription : 08/06/2013
Age : 23
Localisation : Queenland (rires)

Les tablatures de Queen II Empty
MessageSujet: Re: Les tablatures de Queen II   Les tablatures de Queen II EmptyDim 2 Fév - 13:52


Father To Son

|-------|-------|---------8---------------------------------------|
|-------|-------|------------8--5---------------------------------|
|-10----|-8-----|-6---------------555555555555555-3-------5-------|
|-------|-------|-------------------------------------------------|
* * * * * * * *
|-----------------------------------------------------------------|
|-5---5-----------2-------2---2-----------------------------------|
|----5----5--55-----2----2---2---23---3---3-------5---5---5---3-3-|
|---------------------0------------------3----3----------5--------|

* * * * * * * *
|-----------------------------------------------------------------|
|-----5-----------2---------------------------5-------------------|
|---5---5-2---2--2--2------------------------5-52-3---3---3-------|
|-3----------2--------0-0-0-0-0---3---3---3------3---3---3----3---|

* * *
|------------------------|-------|--------|
|-7-------7---7----------|-------|--------|
|----7---7---7--7-5------|-3-----|-5------|
|-----5------------------|-------|--------|

* * * * * * * *
|---------------------------------------------------------7-------|
|-5---------4---4-2-----------------------------------------------|
|---------5---5-------------------33--3---3-------5---------------|
|-------------------0-0---00000----------3----3-------------------|

* * * * * * * *
|-----------------------------------------------------------------|
|-5---5---4---4---2---------------------------3-------------------|
|---5---5---5---5---2------------------------5-52-32-23---3--3----|
|---------------------0-0-0-0-0-0-3---3--33------3--3----3----3333|
* * * *
|---------------------14---7/--14---|
|-----7-------7-77------------------|
|-5------7---7-7--5-----------------|
|---------5-------------------------|

* * * *
|-------|-------|---------8---------------------------------|
|-------|-------|------------8--5---------------------------|
|-10----|-8-----|-6---------------555555555555555-8---------|
|-------|-------|-------------------------------------------|

* * * * * *
|---8h10-8h10-10-------------------------------15h17-h17-17---------------|
|----------------------------3-1----------------------------15------------|
|----------------8---------------1----------------------------------------|
|---------------------------------1---------/-----------------------------|

* * * * * * * * *
|-------------------------------------------------------------------------|
|----3-1------------------------------------------------------------------|
|--------1--------------------------------------------7-77----750-----7-7-|
|---------1--11111444444444444444444444444...//---0-0-----0-0-----0-0-----|

* * * * * * * * *
|-------------------------------------------------------------------------|
|-------------------------------------------------------------------------|
|--5---4------7-7-----7-7-----7-7--5---4------7-77----7-7-7-7----57-------|
|---------0-0-----0-0-----0-0-------------0-0-----0-0---------567--65305--|

* * * * * * *
|---------------------------------------------------------|
|---------------------------------------------------------|
|-----7-7-----7-7-----7-7--5----------7-777-7777775...----|
|-0-0-----0-0-----0-0-----0---05--0-0---------------------|

* * * * * * * *
|-----------------------------------------------------------------|
|-----------------------------------------------------------------|
|----77------77-------7----5----------7-5-----7------77----5------|
|-000----00-------0------------5--0------70-------0------------5--|

* * * * * * * *
|-----97----------------------------------------------------------|
|-------9---------------------------------------------------------|
|-7-77---5777775------777755554444----75-57---75-5----777--5---4--|
|---------------750000------------0-0---7---0---7-0-0-------------|

* * * * * * * * *
|----------------------------------------------------------------------------|
|----------------------------------------------------------------------------|
|-----7-77---910-10107-7910-1010-5-------------------------------5-----------|
|-0-00----0-0------------------------5--0--23---0--23---0--23--------5--0----|

|------|------|
|------|------|
|-5----|-3----|
|------|------|

* * * * * * * * *
|-----------------------------------------------789999999997--------------|
|----------------7-------------------------45789------------9875----------|
|-----7-7777777-7-777775---5------777775-57---------------------75777775-5|
|-0-00------------------70-----5/-------7-------------------------------7-|

* * * * * * * *
|----------------------------------------------------------------|-----|-----|
|----------------------------------------------------------------|-----|-----|
|-75----------7-77-5--4-45----75-5----75-5---------5-------------|-5---|-3---|
|----7-53-0-0----------5--0-0---7-0-00--7-0-023--------5--0------|-----|-----|

* * * * * * * *
|-----------------------------------------------------------------|
|-----------------------------------------------------------------|
|---------5-5-5-5-7-------777-5-5-3---3---3-------5-------5---3---|
|-3-3-3-3-----------7-0-07-----------3---3----3-------------------|

* * * * * * * * * *
|-------------------------------------------------------------7-------9---|
|-----5--------4-02---2-------------------------------5------7-7-----9--9-|
|----5-5-02--22-2--------2----------------3-------3-------5-----5-7-------|
|-3-----3-----------------0-0000003---------------------------------------|

* * * * *
|------------------------------------|
|---------7---7\---------------------|
|-----7-----------3------------32----|
|-5------------------------------35\-|

* * * * * * * *
|--------------------------------------------------------------------|
|-----5-------5----------------------------7-7-77777-55555-555553----|
|-----------------3---*---3---3_____--------7-------5------------531-|
|-3-------3--------------3-----3-3-3-5---5--------------------------3|

* * * * * * * *
|--------------------------------------------------------53-------|
|--------55-55553-------------5-557-77---77-7777735-5553---53-----|
|----------------53-333-333-33--------7-7---------------5----531--|
|-3-3----------------------------------5------------------------01|

* * * * * * * *
|---------------------------------------------------------3-------|
|---------5---53--------------5555777775----------55555555-5533---|
|--------5---5---53-3-3---3--3----------75---------------------531|
|-3--33------------------3----------------5-5-5-------------------|

* * * * * * * *
|-------------------------------_____-----------------------------|
|-------------------------------5-5-5---------7--7775-555555555...|
|-------------_____-3---3-3-3-3--------------7--------------------|
|-3---3--13---3-3-3-------------------5--55-----------------------|

* * * * * * * *
|-----------------------------_____----------5----------3-----------|
|-----5-------53------------555-5-5-7------77--775--5--5-5--3-------|
|----5---5-------53-333-333------------7----------75----------5-31--|
|-3-------3-----------------------------5-------------------------12|

* * * * * * * *
|----------33-----------------_____---------------------------------|
|---5-5-555--553--------------5-5-5-7-7-75------75--5-5---5553-5353-|
|---------------553-3-3-3-3-3--------------7-------7----------5----5|
|-3----------------------3------------------5-----------------------|

* *
|---------------|
|---------------|
|---------------|
|-3-3-3--03...--|

_________________________________________________
[Vous devez être inscrit et connecté pour voir cette image]
Revenir en haut Aller en bas
simbaud
Administrateur de Queenland
simbaud

Messages : 2811
Date d'inscription : 08/06/2013
Age : 23
Localisation : Queenland (rires)

Les tablatures de Queen II Empty
MessageSujet: Re: Les tablatures de Queen II   Les tablatures de Queen II EmptyDim 2 Fév - 13:54


White Queen (As It Began)




three guitars
|-19---|-19tr17--|-17tr15--|-15tr14--|
|-15---|-15------|-15tr12--|-12tr10--|
|-12---|-12tr11--|-11tr9---|--9tr7---|
|------|---------|---------|---------|
|------|---------|---------|---------|
|------|-left----|-right---|-left----|

acoustic guitar:
|-------------0------2---|-3-2----2---|----------0-|----------0-|---2----|
|---------3---------3----|-3-3----3---|-0-3----3-0-|----------0-|-0-3----|
|-------0----------2-----|--------2---|-0-2----2-0-|--------2-0-|-0-2----|
|-----0-----------0------|-0-0----0-2-|-0-0----0---|-5\0----2-2-|-0------|
|-0h2--------------------|----------2-|------------|-5\0----2-2-|-2------|
|------------------------|----------0-|------------|-3----------|--------|

|------------------------------------------------------------------|----|
|------1---0-----------1---0-------------------------1-------------|----|
|--------------2---------------2-------2---2---2-------4-------2---|-0/-|
|----2---2---2---2---2---2---2---2---2---0-------1-------2---2---2-|-/0-|
|--0-----------------------------------------3---------------------|----|
|------------------3---------------1---------------1-------0-------| 2X |

|-----------------0-------------5-----5---------------------------------------|
|-------------0---1---3-------5-----5---5-----3-------1-------3---------------|
|-----2-----------0---0-----5---------------2---2-----------2---2-----2...----|
|---2---2---0---0-2---0---7---------------0---------2---2-0---------2---------|
|-0---------------3---2-----------7---------------0---------------0-----------|
|---------3-------------------------------------------------------------------|

two gtrs arr for one
|-3--2-----2--0-----3--2-----0--0-----3--2-----0--0-----3--2---|
|-3--3-----3--0-----3--3-----0--0-----3--3-----0--0-----3--3---|
|-4--2-----2--0-----4--2-----2--0-----4--2-----2--0-----4--2---|
|-5--0-----0--2-----5--0-----2--2-----5--0-----4--2-----5--0---|
|----------------------------------------------0--2------------|
|----------------------------------------------0--0------------|
acoustic guitar:
|-----------------------------------------------------------------|----|
|-----1---0-----------1---0---------------0---------1-------------|----|
|-------------2---------------2-------2-------2-------4-------2---|-0/-|
|---2---2---2---2---2---2---2---2---2---0-------1-------2---2---2-|-/0-|
|-0-----------------------------------------3---------------------|----|
|-----------------3---------------1---------------1-------0-------| 2X |

Am Dm/E A7 Dm F7 B B/a Gm Gm7 Esus4 E
?|-------------0-------1-------1-----|
?|---------3---2---------------------|
?|-2---2---2-----2---2---2---2---2---|
?|---2---2---2-----0-------1---------|
?|-0-------0-------------------------|
?|-----------------------------------|

acoustic guitar behind the solo
|------------------|------------------|-----------------|-------------0---|
|----0h1------0----|-----0h1------0---|-----1-------0---|-----1-----------|
|-2-----2---2--2-2-|--------2---2--22-|---2---2---2--222|---2---2---2---2-|
|---2------2-2--2--|---2-----2--------|-----------------|-1-------2-------|
|---------0--------|------------------|-----------------|-----------------|
|------------------|-3--------3-------|-1-------1-------|-----------------|

acoustic solo
|--------------------------------------------------------------|
|--------------------------------------------------------------|
|--------------------------------------------------------------|
|-7----11r9-7-7-7-7vvvv---10r9-7-9-10-12p10-9-10-9hp---9-7-----|
|----------------------------------------------------------7v--|
|--------------------------------------------------------------|

|-----------------------------------------------------------|
|-----------------------------------------___---------------|
|-7-b8-b9-9r7---7-5hp---4-5-4hp---5p4-5-7-9r7p5---7-5-7/9---|
|-----------------------------------------------------------|
|-----------------------------------------------------------|
|-----------------------------------------------------------|

|------------------------------------___________-------___________-------|
|---------8---8-10-8/10---10/12---12-12h13p12p10-12-13-12h13p12p10-12-10-|
|-9/11-11----------------------------------------------------------------|
|------------------------------------------------------------------------|
|------------------------------------------------------------------------|
|------------------------------------------------------------------------|

|-----------------------------------------------------------------|
|-------------------x---------------------------------------------|
|-9p7(\5)-7p5-7p5v--x---5-7-8-8p7-8p7-8p7p5-7p5\4-5---4-2-4-0-2...|
|-----------------------------------------------------------------|
|-----------------------------------------------------------------|
|-----------------------------------------------------------------|

acoustic guitar 2
|-12r10p8-7-8-7h8p7----------------------------------------------------------|
|-------------------10-------------------------------------------------------|
|----------------------9-7----------------5-7-5-5-7b9---b9-b9-b9-b9-b9r7-5-7-|
|--------------------------10p9-10-5-7---------------------------------------|
|----------------------------------------------------------------------------|
|----------------------------------------------------------------------------|

|------------------------------------------------------------------------|
|------------------------------------------------------------------------|
|--7p5-5-5-5-5\4-4-4-4\2---2---5r4p2-4p2-4-4b-b5-b5-b5-b5-b5r4p2-5r4p2---|
|------------------------------------------------------------------------|
|------------------------------------------------------------------------|
|------------------------------------------------------------------------|

|-----------------------------------------------------|
|-_____---_____-----_____-------_____-------_____-----|
|-5r4p2-4-5r4p2-4-5-4b5r4-2-4-5-4b5r4-2-4-5-4r5r4p2---|
|-----------------------------------------------------|
|-----------------------------------------------------|
|-----------------------------------------------------|

two guitars
|---------------------------------| |------------------------------------|
|-10---10---10-8-7--3-------------| |------------------------------10-12-|
|-11---11---11-7-2--2---2-4--2-4--| |-------------------------11-12------|
|-----------------------4-2--1----| |----------------11-13-14------------|
|---------------------------------| |----------12-14---------------------|
|------------------------------0--| |-12-14-15---------------------------|

|---------------------------12b13---b13__r12p10-12v---10--|
|-12b13v__r12p10-12vvv-10---------------------------------|
|---------------------------------------------------------|
|---------------------------------------------------------|
|---------------------------------------------------------|
|---------------------------------------------------------|

|---------------------------------------------------------------|
|-18b20v--17-15------------17b18--r17p15h17--18-17h18hp-15-17v--|
|---------------17-15vv-----------------------------------------|
|---------------------------------------------------------------|
|---------------------------------------------------------------|
|---------------------------------------------------------------|

...
acoustic guitar:
|-2--0--------------------------0---3----3p2------0-----------------------0--|
|-3--0-----0--0----------3---3--0---3--3----3-----0--------3------------0----|
|-2--0-----0--0-------0--2------0---0--------2-2--0---0----2----------1------|
|-0--2-----4--4p2-0---0--0---0--2---0--0-------0--2---0-0--0--------2--------|
|----2--------------2-2-------------------------------5------4\---2----------|
|----0----------------3--2----------------------------3-2-------0------------|

_________________________________________________
[Vous devez être inscrit et connecté pour voir cette image]
Revenir en haut Aller en bas
simbaud
Administrateur de Queenland
simbaud

Messages : 2811
Date d'inscription : 08/06/2013
Age : 23
Localisation : Queenland (rires)

Les tablatures de Queen II Empty
MessageSujet: Re: Les tablatures de Queen II   Les tablatures de Queen II EmptyDim 2 Fév - 13:57


Some Day One Day

|---------------------------------------------------------------------|

|---------------------------------------------------------------------|

|---------------------------------------------------------------------|

|-----------------------------5-------------------------------5-------|

|-------------5---5-5-5-5-5h7-----7-----------5---5---5-5-5h7-----7---|

|-0---0-0-x---------------------------0-0-5/7-------------------------|



|--------------------------------------------------------------------------|

|--------------------------------------------------------------------------|

|-----------------------------------------7---7---7-7----------------------|

|-------------------------5---5-5-5/7-7h9-------------9p7-9p7-5b-----------|

|-7-7-----5---5---5-5-5h7------------------------------------------7-7-7v--|

|-----5/7------------------------------------------------------------------|



|----------------------------------------------------------------|

|--------------------------------------------12------------------|

|------------------------------9---9-9-11b13------13r11p9----9--/|

|-------------9---9-9-11---*-*----------------------------11-----|

|-/11---11-11----------------------------------------------------|

|----------------------------------------------------------------|



|-------------------------------------------------------------------------------------------|

|-------------------------------------------------------------------------------------------|

|---------------------______----12b------------------------------------_______---12b--------|

|-------12---12h13p12-121212h14-------14-14-14----------12---12---12---121212h14-------14---|

|-12h14----------------------------------------12-12h14-------------------------------------|

|-------------------------------------------------------------------------------------------|



|-------------------------------------------------------------12---------------|

|----------------------------------------------------------------15p12---------|

|------------------------------------12b-----------12-14b16------------14b16---|

|-14----------12---12-12-12-12-12h14-------14----------------------------------|

|----12-12h14-----------------------------------12-----------------------------|

|------------------------------------------------------------------------------|



|----12------------------12-------------------------------------------------|

|-12----15p12---------12----15p12-14p12-13p12-13p12-------------------------|

|-------------14b16---------------------------------15p14p12----12h14p12----|

|------------------------------------------------------------14----------14p|

|---------------------------------------------------------------------------|

|---------------------------------------------------------------------------|



|------------------------------------------------------------|

|------------------------------------------------------------|

|-------------------------------12h14p12---------------------|

|p12h14p12h14p12----12----12-------------14-12h14p12----12---|

|----------------14----14----14----------------------14------|

|------------------------------------------------------------|



|--------------------------------------------------------------------_______-------|

|-----------------------------------------15b17v---15-12-15p12h15p12-15p12---------|

|-------------------------------------------------------------------------15p14p13-|

|-14---12-14-12--------------------------------------------------------------------|

|---------------14-13-12-10------------x-------------------------------------------|

|---------------------------12-10v-----x-------------------------------------------|



|-------|-----------------|----|------------------12-15-b17vv----|

|-12-15-|-b17-b16-b17-b16-|----|-b17___0vvv----15----------------|

|-------|-----------------|-0/-|---------------------------------|

|-------|-----------------|-/0-|---------------------------------|

|-------|-----------------|----|---------------------------------|

|-------|-----------------|15 X|---------------------------------|



|-15---12------------------------------------------------------------------------------|

|----------15--12--________------------------------------------------------------------|

|------------------15p14p12----14--12--------------------------------------------------|

|---------------------------14---------14-12-------------------------------------12----|

|--------------------------------------------14-------14\--------10h12p10h12/14-----14-|

|-----------------------------------------------12-12--------12------------------------|



|---------------------------------------------------------------------------|

|---------------------------_________---------------------------------------|

|--------------------------------12---12vv\--2b3__r2-----0------------------|

|---------------------12----12h14--14----------------------2-0--------------|

|-----10h12p10h12/14-----14------------------------------------2-1-0--------|

|-12-----------------------------------------------------------------3-0----|

_________________________________________________
[Vous devez être inscrit et connecté pour voir cette image]
Revenir en haut Aller en bas
simbaud
Administrateur de Queenland
simbaud

Messages : 2811
Date d'inscription : 08/06/2013
Age : 23
Localisation : Queenland (rires)

Les tablatures de Queen II Empty
MessageSujet: Re: Les tablatures de Queen II   Les tablatures de Queen II EmptyDim 2 Fév - 13:59

The Loser In The End

Verse
 *   .   *   .   *   .   *   .   *   .   *   .   *   .   *   .
|-----------------------------------------------------------------|
|------------------------------5-------------------------------5--|
|-----------------3---------357-75---------3------3---------357-75|
|-5---5---35--5----5--5----5------5---5---5---5----5--5--3-5------|


 *   .   *   .   *   .   *   .   *   .   *   .   *   .   *   .
|-----------------------------------------------------------------|
|------------------------------5---------------------------4--454-|
|---------------------------357-755---5---35--5---355-5--55--5---5|
|-5---5--535--5---35--5----5--------------------------------------|

 *   .   *   .   *   .   *   .   *   .   *   .   *   .   *   .
|-----------------------------------------------------------------|
|-----7------------------------5----------------------------------|
|-----------------3---------357-75--------------------------------|
|-5-5----535--5----5--5----5------333-3--313-13---13--3---33-33333|


                                2nd Verse
 *   .   *   .   *   .   *   .   *   .   *   .   *   .   *
|-----------------------------------------------------------------|
|------------------------------5-------------------------------5--|
|-----------------3---------357-75----------------3---------357-75|
|-5---5-5535--5----5--5----5------5---5--535--5--5-5--5--3-5------|

 *   .   *   .   *   .   *   .   *   .   *   .   *   .   *   .
|-----------------------------------------------------------------|
|------------------------------5-------------------------------5--|
|-----------------3---------357-75----------------3---------357-75|
|-5---5--535--5----5--5-35-5------5---5--535--5----5--5--355------|

 *   .   *   .   *   .   *   .   *   .   *   .   *   .   *   .
|-----------------------------------------------------------------|
|--------------------------4445-6-----7--757--75---------------5--|
|-5-5-5--355-55---5-5-5-555---------------------75-----------57-75|
|--------------235----------------5---------------5-5-5--535------|

 *   .   *   .   *   .   *   .   *   .   *   .   *   .   *   .
|-----------------------------------------------------------------|
|--------------------------------------------------------------5--|
|-------------------------------------------------3---------357-75|
|-3-3-3---13-131313-3-3-3-111333335---5--535--5----5--5----5------|


 *   .   *   .
|-----------------|------|------|------|
|-----757-757575--|--0/--|--0/--|--0/--|
|-----------------|--/0--|--/0--|--/0--|
|-535-------------|------|------|------|


Bridge:
 *   .   *   .   *   .   *   .   *   .   *   .   *   .   *   .
|-----------------------------------------------------------------|
|-----------------------------------------------------------------|
|-5------5---2--3-5---5-55--------555-5-----------3-3-3-3---------|
|---------3---------------33-3-3-3--------33-33--3--------5---5-55|

 *   .   *   .   *   .   *   .   *    .
|------------------------------------------|
|------------------------------------------|
|-5---5-----------3---3---5----------------|
|---------3------0-------------------------|

Verse (short)
 *   .   *   .   *   .   *   .   *   .   *   .   *   .   *   .
|-----------------------------------------------------------------|
|------------------------------5--------------4-4-----4--4---4-5-6|
|-----------------3---------35--755---5--35--5-5--5-5-----55------|
|-5---5---35--5----5--5--3-5--------------------------------------|

 *   .   *   .   *   .   *   .   *   .   *   .   *   .   *   .
|-----------------------------------------------------------------|
|-7---7\-----------------------5----------------------------------|
|-----------------3---------35--75--------------------------------|
|---------35--5----5--5--3-5------133-3--313-13---133-3--313-13131|

                                 solo
 *   .   *   .   *   .   *   .   *   .   *   .   *   .   *   .
|-----------------------------------------------------------------|
|------------------------------5----------------------------------|
|-----------------3----------57-7---------------7\----------------|
|-5---5---35--5----5--5----5------555-5-----------333-3---------13|


 *   .   *   .    *   .   *   .
|----------------------------------|
|----------------------------------|
|---------------7\-----------------|
|-555-5------------33333-----------|




 *       .       *       .     *       .     *       .
|--------------h14-h14-h14-1414------------/12121212121212----|
|---------------------------------------------------------1412|
|-------------------------------------------------------------|
|-5-5-5---5---------------------3-3-3---3---------------------|

 *       .       *       .      *       .       *       .
|------------------------------------------------------4---5-----|
|---------------7---7---7--7-5----------------------5--------(3)-|
|------------------------------7---------------------------------|
|-5---5---5----------------------3-3-3---3-----------------------|
 *       .       *      .        *       .       *       .
|--------------h14-14141412h141414--------------------------------|
|-5-5-5-----------------------------------------------------------|
|-----------------------------------------------------------------|
|---------------------------------3-3-3---3-----3---3---3---3-3---|


 *       .       *       .       *       .       *       .
|------------------h14141414\-------------------------------------|
|-----------------------------------------------5---5---5---5-----|
|-----------------------------------------------------------------|
|-5-5-5---5-----------------------3-3-3---3-----------------------|


 *       .       *       .       *       .       *       .
|-----------------------------------------------------------------|
|-----7---7---------5---------------------------------------------|
|-----------------------7---5-3---------------------1-------------|
|-5-5---------------------------5-3-3-3---3-------------3---0-3---|

 *       .       *       .       *       .       *
|-----------------------------------------------------------------|
|-----------------------------------------------------------------|
|-----------------------------------------------------------------|
|-5---5---5---------5-----5---5---3--(2)--3-------3---3---3---3---|

...

_________________________________________________
[Vous devez être inscrit et connecté pour voir cette image]
Revenir en haut Aller en bas
simbaud
Administrateur de Queenland
simbaud

Messages : 2811
Date d'inscription : 08/06/2013
Age : 23
Localisation : Queenland (rires)

Les tablatures de Queen II Empty
MessageSujet: Re: Les tablatures de Queen II   Les tablatures de Queen II EmptyDim 2 Fév - 14:01


Ogre Battle

played backwards
|---------------------------------------------------|
|---------------------------------------------------|
|---2---2---2---2-----------------------------------|
|---2---2---2---2---2-3-5-5-0-2-3-3-----------------|
|-*-0---0---0---0-------------------2-3-5-5-0-2-3-3-|
|---------------------------------------------------|

|---------|----|---------|----|---------------------------------|----|-----|
|---------|----|---------|----|---------------------------------|----|-----|
|---------|-0/-|---------|-0/-|---------------------------------|-0/-|-----|
|---------|-/0-|---------|-/0-|-----2-----2-2---2-2---2-2---2-2-|-/0-|-----|
|---------|----|---------|----|-----0-----0-0---0-0---0-0---0-0-|----|-----|
|-0-3-5-5-| 3X |-0-2-3-3-| 3X |-0-------3-----3-----3-----3-----|----|-0---|


backwars off
|---------------------------------|----|---------|----|---------|----|
|---------------------------------|----|---------|----|---------|----|
|---------------------------------|-0/-|---------|-0/-|---------|-0/-|
|-2-2---2-2---2-2---2-2---2-------|-/0-|---------|-/0-|---------|-/0-|
|-0-0---0-0---0-0---0-0---0-------|----|---------|----|---------|----|
|-----3-----3-----3-----3-----0---|----|-3-3-2-0-| 3X |-5-5-3-0-| 3X |

|-------------------------------------------------2-----|
|-------------------------------------------------3-----|
|---------------------------------2---2---2---2---2-----|
|-----------------3-3-2-0-5-5-3-2-2---2---2---2---0-----|
|-3-3-2-0-5-5-3-2-----------------0---0---0---0---------|
|-------------------------------------------------------|


|-------------------------------------|----------------|
|-------------------------------------|----------------|
|-------------------------------------|----------------|
|-5-------------------------------2---|-----5-------2--|
|-5----5----------9---------------2---|-----5-------2--|
|-3----2v---x-x-0-7---*-x-x---x-x-0---|-x-x-3-----x-0--| C D


|------------------------2---------------------|
|----------3-------------3---------------------|
|----------2-------------2-----7---------------|
|-5------------------4---------7-----5---------|
|-5------------0-0-2---------5-5-----5---------|
|-3----2v----------------------------3-----0---|


|-----------------2---|---------------------|----|--------------------------------------2----|
|-----------------3---|---------------------|----|--------------------------------------3----|
|-----------------2---|---------------------|-0/-|--------------------------------------2----|
|-5---------------0---|---------------5h7---|-/0-|---------------5h7---5----------------0----|
|---3-2-0-------0-----|-3-2-0-3p0-5p0-------|----|-3-2-0-3p0-5p0-----------7---5--3--2-------|
|---------3-2-0-------|---------------------|----|-------------------------------------------|


|-----------------------------------|
|-----------------------------------|
|-----------------------------------|
|-5---------------------------------|
|-5----5-----------9----------------|
|-3----2---x-x-x-x-7---x---x-x-0tr--| G E C D

....


|--------------------|----|------------------------------------|
|--------------------|----|------------------------------------|
|-2---22---22---22---|-0/-|-2---22---22---22-204----4----4...--|
|-2---22---22---22---|-/0-|-2---22---22---22---4----4----4-----|
|-0---00---00---00---|----|-0---00---00---00---2---------2-----|
|-----------------420| 2X |--------------------------0200------|

_________________________________________________
[Vous devez être inscrit et connecté pour voir cette image]
Revenir en haut Aller en bas
simbaud
Administrateur de Queenland
simbaud

Messages : 2811
Date d'inscription : 08/06/2013
Age : 23
Localisation : Queenland (rires)

Les tablatures de Queen II Empty
MessageSujet: Re: Les tablatures de Queen II   Les tablatures de Queen II EmptyDim 2 Fév - 14:03


The Fairy Feller's Master-Stroke


This is the rhytm guitar


|--------------------------------------------------------------------------|
|-3------3-----------------------------------------------------------------|
|-2------2---------------------------------5-5-2----------5-5-2---7---2----|
|-0--5-4----5-4----------5-5-2-------------5-5-2----------5-5-2---7---2----|
|---------------3-2------3-2-0-------------3-2-0--0--0-2--3-2-0---5---0----|
|---------------------------------------------------3----------------------|

|-----------------------------1------------------------------------------------|
|-----------------------------3------------------------------------------------|
|--------------------------2--2--------------------5---------------5-5-2--7--2-|
|-------2--3---------------2--0--------------------5-5-2-----------5-5-2--7--2-|
|-5-3-5------3------8-7-5--0-----------------------3-2-0--0---0-2--3-2-0--5--0-|
|--------------1------------------1-1-1-1-3-3-3-------------3------------------|

|-----------------------------------1--------------------|
|-----------------------------------3--------------------|
|-----------------------------7--2--2--------------------|
|-------2--3-3----3-3----3-2--7--2--0--------------------|
|-5-3-5-----------------------5--0-----------------------|
|--------------1------1-----------------1-1-1-1-3-3-3----|

|-------------------------------------------------------------------------------|
|-------------------------------------------------------------------------------|
|---2--------4times----3--------3times--------------1-3----7-----------2--------|
|-----3-2----------------4-3------------------1-3-4----------9-7-4-------4-2----|
|---------3------------------4------------3-4-----------5--------------------4--|
|-5------------------6------------------6---------------------------5-----------|

|-------------------------------------------------------------------------------------|
|-------------------------------------------------------------------------------------|
|----7-----------2----------7-----------2----------7---------------0-2-4-5-4---4---4--|
|------9-7-4-------4-2--------9-7-4-------4-2--------9-7-4-----2-3--------------------|
|-5--------------------4--5-------------------4--------------3---------------22--22-2-|
|-------------5-----------------------5----------5------------------------------------|

|----------------------------------------------------------------|
|----------------------------------------------------------------|
|-------------------9-7-5----------------------------------------|
|-----------0-1-2---9-7-5-----------------2---2----2---0-2-4-5---|
|-2-1-2-3-4---------7-5-3--0-0-0-0-2-2-2--2-----2----2-----------|
|-----------------------------------------0----------------------|

|--------------------------------------------------------------------------------------|
|--------------------------------------------------------------------------------------|
|-5-5-2-----------5-5-2---7---2------------------------3-2-0-------7-------------------|
|-5-5-2-----------5-5-2---7---2---------2--3-3-----3-3-------3-----7-------------------|
|-3-2-0--0---0-2--3-2-0---5---0---5-3-5------------------------0---5-------------------|
|----------3-----------------------------------0-0---------------------1-1-1-1-3-3-3---|

|----------------------------------1-----|
|---------------------3------------1-----|
|-------------------2---2----------2-----|
|-----------------0-------5--3-3---3-----|
|-3-2-0---3-2-0--------------------3-----|
|----------------------------------1-----|




guitar-solo
|-5h6p5p3-5p3---------------------5h6p5p3-5---|
|-------------6p5-6p5h6p5h6p5-3---------------|
|---------------------------------------------|
|---------------------------------------------|
|---------------------------------------------|
|---------------------------------------------|


|-5h6p5p3-5p3---------------------------------|
|-------------6p5-6p5h6p5h6p5-3---5h6p5p3-5---|
|---------------------------------------------|
|---------------------------------------------|
|---------------------------------------------|
|---------------------------------------------|

|-5h6p5p3-5-----------------------------------|
|-------------6p5-6p5h6p5h6p5-3---2h3p2---2---|
|---------------------------------------4-----|
|---------------------------------------------|
|---------------------------------------------|
|---------------------------------------------|

|-----------------------------------------------------------------|
|-3h4p3---3---3h4p3---3---3h4p3---1h3p1---1---1h3p1---1---1h3p1---|
|-------5-----------5-------------------3-----------3-------------|
|-----------------------------------------------------------------|
|-----------------------------------------------------------------|
|-----------------------------------------------------------------|
|
|-5h6p5p3-5---5h6p5p3-5---5h6p5-----------------------------------|
|---------------------------------5h6p5p3-5---5h6p5p3-5---5h6p5---|
|-----------------------------------------------------------------|
|-----------------------------------------------------------------|
|-----------------------------------------------------------------|
|-----------------------------------------------------------------|

|--------------------------------|
|-0h1p0---0---0h4p0hphphp-5b7v---|
|-------2------------------------|
|--------------------------------|
|--------------------------------|
|--------------------------------|
|
|----------------------------------|
|-4h5p4p2-4---4h7p4hphphp-10b12v---|
|----------------------------------|
|----------------------------------|
|----------------------------------|
|----------------------------------|

_________________________________________________
[Vous devez être inscrit et connecté pour voir cette image]
Revenir en haut Aller en bas
simbaud
Administrateur de Queenland
simbaud

Messages : 2811
Date d'inscription : 08/06/2013
Age : 23
Localisation : Queenland (rires)

Les tablatures de Queen II Empty
MessageSujet: Re: Les tablatures de Queen II   Les tablatures de Queen II EmptyDim 2 Fév - 14:05


Nevermore

Piano accompaniment arranged for classical guitar.
Transposed down from F to E Major.


outro of "Master-Stroke":
* * * *
|-------0---0-----|----|-------0---0-------------0---------------0-------|
|-----0---0-----0-|----|-----0---0-----0-------0---0---0-------0---------|
|---1-----1---2---|-0/-|---1-----1---2---1---1-------2---1---1-------2-1-|
|-2-----------4---|-/0-|-2-----------4---2-2---------4---2-2-------2-----|
|-----------------|----|-------------6---4-----------4---2---------------|
|-0---------------| 2x |-0-----------------------------------------------|



Intro:
*
|-------0---0-----|----|
|-----0---0-----0-|----|
|---1-----1---2---|-0/-|
|-2-----------4---|-/0-|
|-----------------|----|
|-0---------------|----|


Verse:
* * * *
|-------0---0--------------9--------------7---7---7-------0-----0---|
|-----0---0-----0--------9---9----------7---9---7-------2---0-------|
|---1-----1---2--------9-------9--------8---9---8-------2---1-------|
|-2-----------4-----11-----------11---9---------------2-------2---2-|
|---------------------------------------------------0---------------|
|-0---------------9-----------------7-----------------------0-------|


* * *
|---7---7---7---7----------9----------------4-------|
|-9---9---9---7----------9---9----------4-------4---|
|-----9---9---8--------9-------9--------------------|
|---------9---7-----11-----------11---6---6---6---6-|
|-----7---------------------------------------------|
|-0---------------9-----------------4---------------|


* * * *
|-------0-----0---------0-----0-----------2-----------------------|
|-----2---0-------2---2---1-------------2---2-----4-----4-2---2-4-|
|-----2---1-------2---2---2-----------3-------3---4---4---2-4-2---|
|---2-------2---2---2-------2---2---4-----------4---4-----2---2---|
|-0---------------0-------------------------------2-------2---2---|
|---------0---------------0-------2-------------------------------|



* *
|-0-----0---0-----------0---0-----|
|-0---0---0-----0-----0---0-----0-|
|-1---1---1---2-----1-----1---2---|
|---2---------4---2-----------4---|
|---------------------------------|
|-0---------------0---------------|


Verse'- Outro:

* * * *
|-------0---0--------------9----------------7---7---7-------0-----0---|
|-----0---0-----0--------9---9------------7---9---7-------2---0-------|
|---1-----1---2--------9-------9----------8---9---8-------2---1-------|
|-2-----------4-----11-----------11-----9---------------2-------2---2-|
|-----------------------------------------------------0---------------|
|-0---------------9-----------------9-7-----------------------0-------|


* * *
|---7---7---7---7----------9----------------4-------|
|-9---9---9---7----------9---9----------4-------4---|
|-----9---9---8--------9-------9----------4---4---4-|
|---------9---7-----11-----------11---6-------------|
|-----7---------------------------------------------|
|-0---------------9-----------------4---------------|


* * * *
|-------0-----0---------0-----0-----------2---------------2-------|
|-2---2---0-------2---2---0-------------2---2-----4-----4---4-----|
|-2---2---1-------2---2---1-----------3-------3---4---4-------4---|
|---2-------2---2---2-------2---2---4-----------4---4-----------4-|
|-0---------------0-------------------------------2---------------|
|---------0---------------0-------2-------------------------------|


G# C#m A

* *
|---------4---------------4-------|
|-------4---4-----------4---4-----|
|-----4-------4-------4-------4---|
|---6-----------6---6-----------6-|
|---------------------------------|
|-4---------------4---------------|


* * *
|------7-------12-9-----------5---------------------|
|---10-----------------------------5--------5-------|
|---9----9---9------------6-------6-------6---6-----|
|-------------------------------7-------7-------7---|
|-----------------------7---7---------7-----------7-|
|-9--------7--------5---------------5---------------|


* * * *
|-------0---0-----------0---0-----------0---0-----------0-<5>-----|
|-----0---0-----0-----0---0-----0-----0---0-----0-----0-----------|
|---1-----1---2-----1-----1---2-----1-----1---2-----1-------------|
|-2-----------4---2-----------4---2-----------4---2---------------|
|-----------------------------------------------------------------|
|-0---------------0---------------0---------------0---------------|


_________________________________________________
[Vous devez être inscrit et connecté pour voir cette image]
Revenir en haut Aller en bas
simbaud
Administrateur de Queenland
simbaud

Messages : 2811
Date d'inscription : 08/06/2013
Age : 23
Localisation : Queenland (rires)

Les tablatures de Queen II Empty
MessageSujet: Re: Les tablatures de Queen II   Les tablatures de Queen II EmptyDim 2 Fév - 14:12


The March Of The Black Queen

two guitar solos

1'37"
|------------------------------------------------------------------|
|--------------------------------------------------5---------------|
|-7-b9-7-b9-7-9r7-5--b9-7-9r7-5---9r7-5-7-6-7-6-7----7-5-----4-5---|
|--------------------------------------------------------7-7-------|
|------------------------------------------------------------------|
|------------------------------------------------------------------|

---3--- ---3--- ---4----
|---------------------------------------------------------|
|-12b13-13r12p10-12p10---10-------------------------------|
|---------------------12----12--10h12p10--10--------------|
|---------------------------------------12-----12--11--10-|
|---------------------------------------------------------|
|---------------------------------------------------------|

|--------------------|
|--------------------|
|--------------------|
|-9--9---------------|
|-----9---6--7\-1-2--|
|--------------------|


5'6"
|--------------------------------------------------------|
|-8b10___- b10-b9-b10-b9-b10vv----b9-b10-b9-b10-b9-b10vv-|
|--------------------------------------------------------|
|--------------------------------------------------------|
|--------------------------------------------------------|
|--------------------------------------------------------|

|-------------------------------------------------------|
|-10r857-5----------------------------------------------|
|-------7-875-5------------------7-5b-------------------|
|------------7-757------5-5----57-7-----757575----------|
|---------------------57-7--------------------5353------|
|-------------------------------------------------535---|


_________________________________________________
[Vous devez être inscrit et connecté pour voir cette image]
Revenir en haut Aller en bas
simbaud
Administrateur de Queenland
simbaud

Messages : 2811
Date d'inscription : 08/06/2013
Age : 23
Localisation : Queenland (rires)

Les tablatures de Queen II Empty
MessageSujet: Re: Les tablatures de Queen II   Les tablatures de Queen II EmptyDim 2 Fév - 14:15


Funny How Love Is

|-----------------------------------------------------------------|
|---------7------10------7-------------7--------------------------|
|-----10-----10------10-----10-----10-----10--8--10---------------|
|--8----------------------------8--------------------8------------|

C ( - F)
Funny how love is everywhere just look and see
Funny how love is anywhere you're bound to be

|------------------------------------------------------------------|
|----------9------12------9----------------9-----------------------|
|------12------12-----12-----12--------12-----12--9-10-9--7--------|
|--10----------------------------10--------------------------10----|

D ( - G)
Funny how love is every song in every key
Funny how love is coming home in time for tea

|-----------------------------------------------------------------|
|------------------------------------5--7-------------------------|
|--7--7--7------7--7--7----7--7--7-----------7--------------------|
|-----------------------------------------------------------------|

Em 022210 Em
Funny, funny, funny, oh

|----------7------10------7---------------7-----------------------|
|------10-----10------10-----10-------10-----10---8---10----------|
|---8----------------------------8------------------------8-------|
|-----------------------------------------------------------------|

F ( - Bb)
Funny how love is the end of lies when the truth begins
Tomorrow comes, tomorrow brings, Tomorrow brings love in the shape of things

|-----------------------------------------------------------------|
|---------------12--9---12---------------12--9--12----------------|
|--10--10---10---------------10--10--10---------------------------|
|-----------------------------------------------------------------|


|-----------------------------------------------------------------|
|---------------12--9---12----10--12------------------------------|
|--10--10---10--------------------------10------------------------|
|-----------------------------------------------------------------|
G C/G G7
That's what love is, that's what love is

_________________________________________________
[Vous devez être inscrit et connecté pour voir cette image]
Revenir en haut Aller en bas
simbaud
Administrateur de Queenland
simbaud

Messages : 2811
Date d'inscription : 08/06/2013
Age : 23
Localisation : Queenland (rires)

Les tablatures de Queen II Empty
MessageSujet: Re: Les tablatures de Queen II   Les tablatures de Queen II EmptyDim 2 Fév - 14:16


Seven Seas Of Rhye

solo
|---------------------------------18----------------------18----|
|-------------------------------21------r2221-18--------21------|
|----------------18--2018-----------------------20182018--------|
|--------18--20-------------20----------------------------------|
|18--20---------------------------------------------------------|
|---------------------------------------------------------------|

|--------------18---18------------------------------------------|
|-b23__r21p1821--p21--p21---------------------------------------|
|--------------------------20b22__r201820182022__r20p18--18br---|
|---------------------------------------------------------------|
|---------------------------------------------------------------|
|---------------------------------------------------------------|

|----------------21b23------18-------------------------19b21---|
|-------------------------21--2118-----------------------------|
|-20p18----18br-------------------21201820182018---20----------|
|------20---------------------------------------18-------------|
|--------------------------------------------------------------|
|--------------------------------------------------------------|

_________________________________________________
[Vous devez être inscrit et connecté pour voir cette image]
Revenir en haut Aller en bas
simbaud
Administrateur de Queenland
simbaud

Messages : 2811
Date d'inscription : 08/06/2013
Age : 23
Localisation : Queenland (rires)

Les tablatures de Queen II Empty
MessageSujet: Re: Les tablatures de Queen II   Les tablatures de Queen II EmptyDim 2 Fév - 14:17


See What A Fool I've Been

|-------------|--------------------------------------------------|
|--9--10------|--9---7__-----------------------------2-----------|
|--9---9--o/--|--9---7__-------6-----4--4---------5--3--0-----0--|
|--9--11--/o--|--9---7__--4----6--6--4--4---------5--2--2--2--0--|
|--7---9------|--7---5__--2--2----2--2--2--0------3--4--0--2--7--|
|-------------|----0-------------------------3-0-----------0--0--|
2x
|-----------------------------------------------------------------------------------------|
|--2--4-----------------------------------------------------------------------------------|
|--2--4-----------------------------------------------------------------------------------|
|--2--4----------------------99999999999--9-9--11-11--9-9--11-11--------------------------|
|--0--2--2-2--4-4--2-2--4-4--99999999999--7-7---7--7--7-7---7--7--9-9--11-11--9-9--11-11--|
|--------0-0--0-0--0-0--0-0--77777777777--------------------------7-7---7--7--7-7---7--7--|

|-------------------------------------------------------------------------|
|-------------------------------------2--4--------------------------------|
|--12---------------------------------2--4--------------------------------|
|------14-----------------------------2--4-------------------99999999999--|
|----------12b--10------12br--10------0--2-------------------99999999999--|
|-------------------12------------12--------7-7-6-6-5-5-4-4--77777777777--|

|--------------------------------------------------15---------------------------------|
|------------------------------------------------------17-----------------------------|
|----------------------------------------------------------14--12b------14br--12------|
|--9-9--11-11--9-9--11-11-------------------------------------------14------------14--|
|--7-7---7--7--7-7---7--7--9-9--11-11--9-9--11-11-------------------------------------|
|--------------------------7-7---7--7--7-7---7--7-------------------------------------|

|-----------------------------------------|
|--2--4-----------------------------------|
|--2--4-----------------------------------|
|--2--4----------------------99999999999--|
|--0--2--2-2--4-4--2-2--4-4--99999999999--|
|--------0-0--0-0--0-0--0-0--77777777777--|

|-----------------------------------------------------------------|
|-----------------------------------------------------------------|
|-----------------------------------------------------------------|
|--/9-99999--/9-99999----------------------/9-99999--/9-99999-----|
|--/7-77777--/7-77777--/9-99999--/9-99999--/7-77777--/7-77777...--|
|----------------------/7-77777--/7-77777-------------------------|

E (VII) B (VII)

|--------------------------------------------------|
|--------------------------------------------------|
|--------------------------------------------------|
|--9-9--11-11--9-9--11-11--------------------------|
|--7-7---7--7--7-7---7--7--9-9--11-11--9-9--11-11--|
|--------------------------7-7---7--7--7-7---7--7--|

|------------------------------------------------------------------------|
|------------------------------------2--4--------------------------------|
|-12---------------------------------2--4--------------------------------|
|-----14-----------------------------2--4-------------------99999999999--|
|---------12b--10------12br--10------0--2-------------------99999999999--|
|------------------12------------12--------7-7-6-6-5-5-4-4--77777777777--|

E (VII) B (VII)

|-------------------------------------------------------------------------------------|
|-----------------------------------------------------------------------------2--4__--|
|------------------------------------------12---------------------------------2--4__--|
|----------------------4-4--6-6--4-4--6-6------14-----------------------------2--4__--|
|--2-2--4-4--2-2--4-4--2-2--2-2--2-2--2-2----------12b--10------12br--10------0--2__--|
|--0-0--0-0--0-0--0-0---------------------------------------12------------12----------|

|--9b10--9-7---------------------------------------------|
|-----------10-8-------------------------------12--4-5_--|
|----------------9-7tr9-----9-9-11-11b12r11--9-----6-7_--|
|-------------------------9------------------------5-6_--|
|--------------------------------------------------6-7_--|
|--------------------------------------------------------|



_________________________________________________
[Vous devez être inscrit et connecté pour voir cette image]
Revenir en haut Aller en bas
Contenu sponsorisé




Les tablatures de Queen II Empty
MessageSujet: Re: Les tablatures de Queen II   Les tablatures de Queen II Empty

Revenir en haut Aller en bas
 
Les tablatures de Queen II
Revenir en haut 
Page 1 sur 1
 Sujets similaires
-
» retro - Queen of hearts complexion soap
» Sweet Amanite Phalloïde Queen -UC-
» Ce que vous détestez chez Queen
» I'm Queentastic • UC
» le groupe QUEEN

Permission de ce forum:Vous ne pouvez pas répondre aux sujets dans ce forum
Queenland - Le forum :: Queen :: Leurs Albums ... :: Queen II-
Sauter vers: