AccueilS'enregistrerConnexionLes tablatures de A Night At The Opera Empty

Partagez
 

 Les tablatures de A Night At The Opera

Aller en bas 
AuteurMessage
simbaud
Administrateur de Queenland
simbaud

Messages : 2811
Date d'inscription : 08/06/2013
Age : 23
Localisation : Queenland (rires)

Les tablatures de A Night At The Opera Empty
MessageSujet: Les tablatures de A Night At The Opera   Les tablatures de A Night At The Opera EmptyMar 24 Juin - 9:54

Death On Two Legs (Dedicated To...)

intro:

repeated arpeggios
4x 2x 2x 2x 2x
|---------11------|-------9------|------9----|------9----|------8----|
|-------11--11--11|-----11-11--11|-----9-9--9|-----9-9--9|-----9-9--9|
|-----11------11--|---11-----11--|---11---11-|---10---10-|---10---10-|
|---13------------|-11-----------|-11--------|-11--------|-10--------|
|-----------------|--------------|-----------|-----------|-----------|
|-11--------------|9-------------|9----------|9----------|8----------|

2x 2x
|------8---|----7---|
|-----8-8-8|---8-8-8|
|----9---9-|--9---9-|
|--10------|-9------|
|----------|--------|
|-8--------|7-------|


|----7-------7---|---7-------7----|--------10---------------10----|
|---8-8-8---8-8--|--8-8----(8)8---|------12--12-----------12--12--|
|--9---9---9---9-|-9---9---9---9--|----12------12-------12------12|
|-9-------9------|----------------|------------------12-----------|
|----------------|----------------|-------------------------------|
|7-------7------7|6------79------7|10--------------10-------------|

|------------1010|
|----10101212----|
|1212------------|
|----------------|
|----------------|
|----------------|


43" H H H H H H H H
|--14-14-------|--14>>>|-14-14-14-14-14-------|
|-------14-----|-------|---------------(0)----|
|---------11---|-------|------------------11v-|
|--------------|-------|----------------------|
|--------------|-------|----------------------|
|--------------|-------|----------------------|

48"
|------------------------|---------------------------------|
|------------------------|---------------------------------|
|------------------------|---------------------------------|
|-9v-------9-8v------7---|-6---(\4)--0-4-5----0-4__/13\----|
|--------9---------9-----|---------2-----------------------|
|------------------------|---------------------------------|

F# G F#

55"
|----------------------14-15-17-15h17p15-14-15-14h15p14----14----15-----------|
|-17b19-----14--15--17----------------------------------17----17----18b20v----|
|-----------------------------------------------------------------------------|
|-----------------------------------------------------------------------------|
|-----------------------------------------------------------------------------|
|-----------------------------------------------------------------------------|

|-17-----------------------------------------------------------------|
|------15--14--15v------14--15--17--b19_rbrp1515-14-15-b17___r-14----|
|--------------------------------------------------------------------|
|--------------------------------------------------------------------|
|--------------------------------------------------------------------|
|--------------------------------------------------------------------|

|----------------------------------|
|-15-14h15p14---14-----------------|
|------------------16-15-----------|
|------------------------17-16vv---|
|----------------------------------|
|----------------------------------|

1'14"
|------------------------|----------------|----|
|------------------------|-10--10--10--10-|----|
|------------------------|-11--11--11--11-|-0/-|
|-5------4---..4-4-4-4-/-|-12--12--12--12-|-/0-|
|-5------4---..4-4-4-4-/-|-12--12--12--12-|----|
|-3------2---..2-2-2-2---|-10--10--10--10-| 2X |

G C

1'33"
|------------------------|-------------------------------|
|------------------------|-------------------------------|
|------------------------|-------------------------------|
|-9v-------9-8v------7---|-6---(\4)--0-4-5___7p5p0-4-----|
|--------9---------9-----|---------2---------------------|
|------------------------|-------------------------------|
|
| H H H H H
|-14-14-14-----|-------14-14v|
|--------------|-------------|
|----------11v-|-11-11-------|
|--------------|-------------|
|--------------|-------------|
|--------------|-------------|


|------------------------|
|------------------------|
|------------------------|
|-9v-------9-8v------7---|
|--------9---------9-----| A xxxx
|------------------------|

1'46" xxx
|--------------------------------------------|
|--------------------------------------------|
|-2--------------3--------3---------------4--|
|-0--------------4--------4-----------0---4--|
|-------/5---30--4--------4------2--------2--|
|--------------4-2----00-02-------------0----|

1'56
|---------------------------2----------2----------------|
|--2--------2-2---2---------3----------3-----3----------|
|--2--------2-2---2---------2----------2-----4-----3----|
|--2--------2-2---2---------0----------0-----4-----4----|
|--0--------0-0---0-------0----------0-------2-----4----|
|0------2-3-----------2-3--------2-3---------------2----|

|-------------------------------------------------------|
|-------------------------2-------2----------3----------|
|-------------4-----4-----2-------2----------2----------|
|-4-----4-----4-----4-----2-------2----------0----------|
|-4-----4-----2-----2-----0-------0--------0----------0-|
|-2-----2----------2----------2-3------2-3--------2-3---|

2'23" trem.
|--------------------------------------------|
|-trem---5-4-3-2-----------------------------|
|-6rr2-----------5-4-2-----------------------|
|----------------------4-2-------------------|
|--------------------------4-3-2-0\\\\////---|
|--------------------------------------------|

2'31"
|--------------------------------------------------------------------2---|
|----3-------------------------------------------------------------3---3-|
|----2-------2----------------------------2----------------------2-------|
|-9\-0-----4-------0-2-----------0------4-------0-2------------0---------|
|--------------4-------2---0---4------------4-------2----0---4-----------|
|------------------------------------------------------------------------|

|-------------------------------------------------|
|-------------------------------------------------|
|---2---------------------------------------------|
|-4-------0-2-------------------------------------|
|-----4-------2---4-5-0---2-4-----0-2-------------|
|-----------------------------3-------0-2--220-2--|

2'31"
|-2------------------------------------------------------------------|
|-3--------3-5/7------------------7----------------------------------|
|-2----------------7-9-b11--9b11---9p7-7--\2------7---7---9-b11------|
|-0----4h5----/7----------------------7---------7__-7----------------|
|--------------------------------------------4/5---------------------|
|--------------------------------------------------------------------|
tr
|----------7--------------------------------------------------------|
|-----11----11----------------------------7v------------------------|
|----------------7---10r9p7-9p7-----7---9---------7-9b11-vr9-7-9v---|
|-2/7---------------------------9p7-------------7-------------------|
|-------------------------------------------------------------------|
|-------------------------------------------------------------------|

|-----------------|
|-----------------|
|-----------------|
|-7h9-9p7---------|
|---------9p7-9---|
|-----------------|

2'53" trem.
|------------------------------|-10--10--10--10-|----|
|------------------------------|-10--10--10--10-|----|
|------------------------------|-11--11--11--11-|-0/-|
|-5-->>>>--3-------------------|-12--12--12--12-|-/0-|
|-5-->>>>----5-3-1-4--xx0\\\\--|-12--12--12--12-|----|
|-3----------------2-----------|-10--10--10--10-| 2X |

G C
|------------------------|-------------------------------|
|------------------------|----------------------------6/7|
|------------------------|----------------------------6/7|
|-9v-------9-8v------7---|-6---(\4)--0-4-5----0-4--------|
|--------9---------9-----|---------2---------------------|
|------------------------|-------------------------------|
H H H H H H H H
|-------19b21r19-|-14-14-14-14-14-14-14----|
|----15----------|-------------------------|
|-16-------------|----------------------11-|
|----------------|-------------------------|
|----------------|-------------------------|
|----------------|-------------------------|

|------------------------|
|------------------------|
|------------------------|
|-9v-------9-8v------7---|
|--------9---------9-----| A D xxxx F# Bm A D
|------------------------|

H: artificial harmonics; the pitches are one octave higher.

_________________________________________________
[Vous devez être inscrit et connecté pour voir cette image]
Revenir en haut Aller en bas
simbaud
Administrateur de Queenland
simbaud

Messages : 2811
Date d'inscription : 08/06/2013
Age : 23
Localisation : Queenland (rires)

Les tablatures de A Night At The Opera Empty
MessageSujet: Re: Les tablatures de A Night At The Opera   Les tablatures de A Night At The Opera EmptyMar 24 Juin - 9:56

Lazing On A Sunday Afternoon

middle
|-3//17---17-16---17-14-----------------------------/17---16-14---16----------------------------------*
|-------------------------14-14--------------------------------------17---14-15-16-17---16-15-17-14---*
|-------------------------------16-14-16b18v----------------------------------------------------------*
|-----------------------------------------------------------------------------------------------------*
|-----------------------------------------------------------------------------------------------------*
|-----------------------------------------------------------------------------------------------------*
|left
|-----------------------------------------------------------------------------------------------------|
|-2///314---14-13---14-10---10-10-----------------7//14---14------14----------------------------------|
|----------------------------------------------(0)-----------14--------------------14---13-12-14-11---|
|---------------------------------12-11-12b14------------------------14---14-14-14--------------------|
|-----------------------------------------------------------------------------------------------------|
|-----------------------------------------------------------------------------------------------------|
|right
|-----------------------------------------------------------------------------------------------------|
|-2//17---17-16---17-14---14-14-------------------8//17---17-14---17---------------14---13-12-14-11---|
|--------------------------------------------------------------------14---14-16-17--------------------|
|-------------------------------16-14-18b19v----------------------------------------------------------|
|-----------------------------------------------------------------------------------------------------|
|-----------------------------------------------------------------------------------------------------|

*-----------------------------------------------------------------------|
*-17b19---17-15---14----------------------------------------------------|
*--------------------16br---14-16b17---16-14h16p14----------------------|
*-------------------------------------------------16p14---14-14----16---|
*---------------------------------------------------------------16------|
*-----------------------------------------------------------------------|

middle
|--------------------------------------------------------------|
|----------------------------------------------------17///22---|
|------------------14-13h14p13------16b18---16-14--------------|
|----------14-16-----------------14----------------------------|
|-16-17--------------------------------------------------------|
|--------------------------------------------------------------|
|left
|----------------------------------------|
|----------------------------------------|
|----------------11-9-----11b13---11-9---|
|---------11-12---------9----------------|
|-11-12----------------------------------|
|----------------------------------------|
|right
|----------------------------------------------|
|----------------------------------------------|
|----------------------------------------------|
|---------------11-9h11p9------12b14---12-11---|
|-8-9---11-12---------------11-----------------|
|----------------------------------------------|

_________________________________________________
[Vous devez être inscrit et connecté pour voir cette image]
Revenir en haut Aller en bas
simbaud
Administrateur de Queenland
simbaud

Messages : 2811
Date d'inscription : 08/06/2013
Age : 23
Localisation : Queenland (rires)

Les tablatures de A Night At The Opera Empty
MessageSujet: Re: Les tablatures de A Night At The Opera   Les tablatures de A Night At The Opera EmptyMar 24 Juin - 9:57

I'm In Love With My Car

solos:
------------------------------------------------------------------------------
------------------------------------------2-3-5b7v----r5p3-5p2-3p2------------
-------0h2h4p2~4-p0-----------------0h2h4---------------------------4p2-4p0h2-
-0h2h4--------------2-----0-----2h4-------------------------------------------
-----------------------4------------------------------------------------------
------------------------------------------------------------------------------
37"
|-------------------------------------------|
|------------------------____________-------|
|---------------14b16___r15b16r14p1214b16---|
|------------14-----------------------------|
|---------14--------------------------------|
|-*-12-15-----------------------------------|

|----------------------------------------|-----------------------------|
|-15b17----15--13--12--------------------|-b20__18-b20--b19-b20__r-17--|
|----------------------b15_r14p12--------|-----------------------------|
|---------------------------------14-12--|-----------------------------|
|----------------------------------------|-----------------------------|
|----------------------------------------|-----------------------------|

1'21"
|-------------------------|-----------------------------------|
|-------------------------|-----------------------------------|
|-15__r14p12-14b15--------|-4p2----------------------7rrr4----|
|--------------------14---|--------3p2p0-----4/5--------------|
|-------------------------|--------------2--------------------|
|-------------------------|-----------------------------------|

|------------------------------------------|
|------------------------------------------|
|-7b9__-7--5--4--5--4~5--------------------|
|------------------------7-5~7---5\4-------|
|-------------------------------------7p5--|
|------------------------------------------|

1'43"
|----------------------------------------------------|
|----------------------------------------------------|
|-----------------------2h4h5---4h5p4p2p0h2p0--------|
|-2h4h5p4p2p0---0h2h4h5-----------------------4p2p0--|
|----------------------------------------------------|
|----------------------------------------------------|

|---------------------------------------|---------------------------------|
|---------------------------------------|-15--17v-----15--17--b19_r17-----|
|----------------------------12h14b16v--|-----------------------------14--|
|----------------------12h14------------|---------------------------------|
|----------10--12--14-------------------|---------------------------------|
|-8//1012-------------------------------|---------------------------------|

|--------------------------------------------------17-----------|
|-(17)b20---b19--17--15--17--17b19_r17p15--17--19------19b21v---|
|---------------------------------------------------------------|
|---------------------------------------------------------------|
|---------------------------------------------------------------|
|---------------------------------------------------------------|

2'34
|------------|-----------|--------------------|---------------------|
|------------|-----------|--------------------|---------------------|
|-0h2h4p2----|-----------|-p2h4p2p0-----------|-4h5p4p2p0h2h4p2p0---|
|---------0--|-5p4p2p0---|------------3---0---|---------------------|
|------------|-----------|--------------------|---------------------|
|------------|-----------|--------------------|---------------------|

|-------------------|
|-5p3-5p3---3-------|
|---------5---5b7---|
|-------------------|
|-------------------|
|-------------------|

-------------------------------------------------------------------------------
---------------------------------------------------------------------3---3-5b6v
5----2---5p2-5p2-5p2-----------------------------------------------5---5-------
---------------------5p3-5p3---------------------------------6r5b6-------------
-----------------------------5---5p3-5p3-------------3-5-3-5-------------------
-----------------------------------------5p0-5-3-1-----------------------------

two gtrs arr for one
|-3-3----3-3--0-----0-2-2--|
|-3-3----2-3--3--3--3-3-3--|
|-0-0----2-2--2--2--2-2-2--|
|-0-0----2-2--------0-0----|
|-2-2----------------------|
|--------------------------|

Lyrics and chords:

Intro: D

Em G D
The machine of a dream.
C Em G
Such a clean machine. When the pistons a pumpin',
D C Em
And the hubcaps all gleam. When I'm holding your wheel,
G D
All I hear is your gear, When my hand's on your grease gun,
C
Oh, it's like a disease son.


Em G D C
I'm in love with my car. Gotta feel for my automobile.
Em G D C
Get a grip on my boy racer rollerbar, Such a thril when your radials squeal


A slide to B (4time) B sl C (4times)
Told my girl I just had to forget her, Rather, buy me a new carburetor,
So she made tracks saying this is the end now, Cars don't talk back,
they're just four wheeled friends now

D

When I'm holding your wheel, All I hear is your gear,
When I'm cruising in overdrive, Don't have to listen to no run of
the mill talk jive.

I'm in love with my car. Gotta feel for my automobile.
I'm in love with my car. String back gloves in my automolove.

outtro:D

_________________________________________________
[Vous devez être inscrit et connecté pour voir cette image]
Revenir en haut Aller en bas
simbaud
Administrateur de Queenland
simbaud

Messages : 2811
Date d'inscription : 08/06/2013
Age : 23
Localisation : Queenland (rires)

Les tablatures de A Night At The Opera Empty
MessageSujet: Re: Les tablatures de A Night At The Opera   Les tablatures de A Night At The Opera EmptyMar 24 Juin - 9:58

You're My Best Friend


Intro
* . . . * . . .
|---------------------------------------------------|
|-1-----------------------1-----------------------1-|
|---------------------------------------------------|
|---------------------------------------------------|
|---3-----3-----3-----3-----3-----3-----3-----3-----|
|---------------------------------------------------|

* . . . * . . .
|-1-----------------1---0-------------------------|
|-3-----------------3---1-------------------------|
|-2-----------------2---0-------------------------|
|-------------------------------------------------|
|-3-----3-----3---3-------3-----3-----3-----3-----|
|-------------------------------------------------|


Verse
* . . . * . . .
|-1-----------1---------0-------------------------|
|-3---------1-3---------1-----------------------1-|
|-2-----------2-----2---0-------------------------|
|-------------------------------------------------|
|-3-----3-----3---3-------3-----3-----3-----3-----|
|-------------------------------------------------|

* . . . * . . .
|-1---1-1-----1-----1-----0-----------------------|
|-3-----------3-----3-----1-----1-----------------|
|-2-----------2-----2-----0---------0-----------0-|
|-------------------------------------------------|
|-3---------3-----3-----3-----3-------3-----3-----|
|-------------------------------------------------|


* . . . * . . .
|-1-----------1---------0-------------------------|
|-3p1-3----p1-3--p1-------1-----------------------|
|-2-----------2-----2-----0-----------------------|
|---------------------------------------0-1-2-----|
|-3-----3-----3-----3-----3-----3-----3---------0-|
|---------------------------------------------3---|

* . . . * . . .
|-1--------(0)1---------0-------0-----1---3-------|
|-3---------1-3---------1-------1-----3---5-------|
|-2---------0-2-----2---0-------------------------|
|-------------------------------------------------|
|-3-----3---------3-------3---------3-------3-----|
|-------------------------------------------------|

* . . . * . . .
|-1-----------------------0-----0---------0-------|
|-3---------1-3---------1-1-----1-----3-----3---1-|
|-2---------0-2-----2---0-0-----0-----0---------2-|
|-------------------2-----------2-----0-----------|
|-3-----3---------3-------3-----------2-----------|
|-------------------------------------------------|


Bridge 1
* . . . * .
|-----------------------2-------------------2-----|
|-------------1---0-1---3-------------------3-----|
|-------------2-----2---------2-----------------2-|
|-------------2-----------0-----0-----0-----0-----|
|-0-----0-----0-----0-----------------------------|
|-------------------------------------------------|

* . . . * . . .
|-------------------------0-----0---------0-3---5-|
|-1---1-1---3-------3-----1-----1-----3---------5-|
|-2---------4-------4-----0-----0-----0---------5-|
|-3---------5-------5-----------------0-----------|
|-------------------------3-----3-----2-----------|
|-1---------------3-----3-------------------------|

* . . . * . . .
|-----0-----------------2-----------------2-------|
|-----1-----------0-1---3-----------------3-----1-|
|-----2-----------------------2-----------2-2---2-|
|-------------------------0-----0-----0-----0---3-|
|-------0-----0-----0-----------------------------|
|-----------------------------------------------1-|

2/4
* . . . * . . . * .
|-------------------------------------------------------------|
|-----1-1---3-----3-3---5-----5---5---5---------5-3---5-3---3-|
|-----2-2---4-----4-4---4-----4---4---7---5-----5-4---5-4---2-|
|-----3-3---5-----5-5---6-----6---6---7---------------------3-|
|-------------------------------------------------------------|
|-----------3-----------4-------------5-----5-----3-----------|


* . . . * . . .
|-----------------1-----1-----------------------0-|
|-----1-----------1-----3-----------------1-1-----|
|-----2-----------2-----1-------------------------|
|-----3-------------------------------------------|
|-------------------------------------------------|
|-1-----1-----1-----1-----1-----1-----1-----1-----|


* . . . * . . .
|-------------------------------------------------|
|-----1-----------------1-----------------------1-|
|-----0-------------------------------------------|
|-------------------------------------------------|
|-3-----3-----3-----3-----3-----3-----3-----3-----|
|-------------------------------------------------|


Bridge 2
* . . .
|-1-----------1---------0-|
|-3---------1-3---------1-|
|-2-----------2-----2-----|
|-------------------------|
|-3-----3-----3---3-------|
|-------------------------|


* . . . * . . .
|-------3-----4-----4-----8-----------5-----------|
|-------5-----5-----5----10---------------8-5-----|
|-------5-----4-----4----12-----------5-----5---7-|
|-------------------------------------5-----------|
|-3-----3-----------------0-----0-----------------|
|-------------4-----4-----------------6-----6-----|

* . . . * . . .
|-------------------0-----------------------1-----|
|-3-----1-----1---------3-----1-3-----4-----1---1-|
|-2-----2-----2---2-----1-------3-----3-----1-----|
|-3-----3-----3---------3-------3-----5-----------|
|-------------------------------------------------|
|-1-----1-----1-----1-----1-----1-----------1-----|

* . . . * . . .
|-----------0-------0---0-----------2-------------|
|-3---3-----0-------0-----3---1-----3-------------|
|-4---4-----1-------1-----2-----2---2-------2-----|
|-5---5-------------2-----2-----------0---0-------|
|-----------------2-------0---2-3-----------------|
|-3-----x-----0-----------------------------------|

* . . . * . . .
|-------3---------------------------------------0-|
|-5-----------5---6-5---3-------1-----3-----------|
|-4-----------4-----4---0-------0-----0---0-2-----|
|-5-----------5-----5-----------2-----3-----------|
|-------------------------------------------------|
|-3-----3-----3-----3-----3-----3-----3-----3-----|

* . . . * . . .
|-------------------------------------------------|
|-----1-----------------1-----------------------1-|
|-----0-------------------------------------------|
|-------------------------------------------------|
|-3-----3-----3-----3-----3-----3-----3-----3-----|
|-------------------------------------------------|


repeat VERSE with altered measures 7-8:

* . . . * . . .
|-1---------0-1------------------------------8-------|
|-3---------1-3-------------------8-----10---8-------|
|-2---------0-2-----2-------------9-----10-----------|
|-----------------------10-----10--------------------|
|-3-----3---------3----------------------------------|
|--------------------------8----------8--------8(\)--|


repeat BRIDGE 1 (altered lead tune omitted)

SOLO = Bridge 2 altered from measure 6 to end
(beginning of lead guitar omitted)


* . . . * . . .
|---3---3-------4---4-------5---7-8---10-------------|
|---3---3-------5---5-------5---9-10--10-------------|
|---4---4-------4---4-------5---7-9---11-------------|
|-------------------------------------0--0-----------|
|---------------------------0-----------------<12>---|
|-3-----------0-----------0--------------------------|

* . . . * . . .
|-------3-----------------7-----6-----5-----3---0-|
|-------5---------6-5-----8-----7-----6-----5-----|
|-------4---------------7-------5-----4---0-2-----|
|-5-----------------------5-----5-----5-----------|
|-------------------------------------------------|
|-3-----------3-----------------------------------|

* . . . * . . .
|-------------------------------------------------|
|-----1-----------------1-----------------------1-|
|-----0-------------------------------------------|
|-------------------------------------------------|
|-3-----3-----3-----3-----3-----3-----3-----3-----|
|-------------------------------------------------|


(In the original song there is a tag section of four measures
here that I omitted)


Outro:
* . . . * . . .
|-1-----------1---------0-------------------------|
|-3---------1-3---------1-----------------------1-|
|-2-----------2-----2---0-------------------------|
|-------------------------------------------------|
|-3-----3-----3---3-------3-----3-----3-----3-----|
|-------------------------------------------------|

* . . . * . . .
|-1---------------------0-------------------------|
|-3---------1-3---------1-------------------0---1-|
|-2---------0-2---2-----0-------------------0---0-|
|-----------------2-------------------------0---2-|
|-3-----3-----3---------3-3-----3-----3-----2---3-|
|-------------------------------------------------|

* . . . * . . .
|-----------------------0-------------------1---3-|
|-------------------3---1-------------------0---5-|
|-------------------0---0-------------------0---5-|
|-------------------0-----------------------------|
|-3-----3-----3-----2---3-3-----3-----3-----2---3-|
|-------------------------------------------------|

* . . . *
|-----------------8-7---8----------|
|-------------------8---8----------|
|-------------------7---9----------|
|-------2-----5-----0--------------|
|-3---------------------7----------|
|----------------------------------|






_________________________________________________
[Vous devez être inscrit et connecté pour voir cette image]
Revenir en haut Aller en bas
simbaud
Administrateur de Queenland
simbaud

Messages : 2811
Date d'inscription : 08/06/2013
Age : 23
Localisation : Queenland (rires)

Les tablatures de A Night At The Opera Empty
MessageSujet: Re: Les tablatures de A Night At The Opera   Les tablatures de A Night At The Opera EmptyMar 24 Juin - 9:59

Sweet Lady


two gtrs arr.(m&r) arr for one >enters left guitar
|-------------------------------------------------------------------------------------------------|
|---9---109---7-7---8-7-\-2-2---3---2----------------9---109-----7---8-7-\---2---3---2------------|
|---9---9-9---7-7---7-7-\-2-2---2---2----------------9---9-9-----7---7-7-\-2-2---2---2------------|
|-9-9---9-9---7-7---7-7-\-2-2---2---2---2------------9---9-9---7-7---7-7-\-2-2---2---2------------|
|-7-7---7-7---5-5---5-5-\-0-0---0---0--------------7-7---7-7---5-5---5-5-\-0-0---0---0------------|
|-------------------------------------0---3b---0---0-----------------------------------0-4-5---6--|

>right gtr rings throughout left:A A
|--------------------------------------------------------------------------------------------------|
|---9---109-\-7-7---8-7-\---2---3---2---------9-\-----9---109-----7---8-7-\-2-2---3---2-----0---0--|
|---9---9-9-\-7-7---7-7-\---2---2---2-----9---9-\-----9---9-9-----7---7-7-\-2-2---2---2-----2---1--|
|---9---9-9-\-7-7---7-7-\-2-2---2---2-----9---9-\-----9---9-9---7-7---7-7-\-2-2---2---2-----2---2--|
|---7---7-7-\-5-5---5-5-\-0-0---0---0-----7---7-\---0-7---7-7---5-5---5-5-\-0-0---0---0-----0---2--|
|-7-----------------------------------0-0-----------0-------------------------------------0-----0--|

'you call...'
|-----------------------------------------------------------------------------------------------|
|---9---109-----2---3-2---------2-------------------------------2---3-2---3---2---------9---9-\-|
|---9---9-9-----2---2-2---------2-------------------9---9-9-----2---2-2---2---2---------9---9-\-|
|---9---9-9---2-2---2-2-----4---2-------------2-----9---119-----2---2-2---2---2---------9---9-\-|
|---7---7-7---0-0---0-0-----2---0---*-------2-------7---7-7---0-0---0-0---0---0---*-----7---7-\-|
|-0-----------------------0-------------0-4-------0----------------------------------x0---------|

|---------------------------------------------------------------------------------------------|
|---2---3-2-----4---2-------------------------------------------------------------------------|
|---2---2-2-----4---2-------------------------8-----8------------------9--\-------------------|
|---2---2-2-----4---2-------------2-x---------9-----9-----9-----11-----11-\-7-----------------|
|---0---0-0-----2---0---*-------2---x---9---119---9-9---119---1111---1111-\-7------7---9p7----|
|-0-----------0---0---------0-4-------0-7---7-7---7-7---7-7---9-9------9--\-5---8h9--------9--|

right:A A
|-------------------------------------------------------------------------------------------------|
|-9---109-----7---8-7-\-2-2---3---2-----9---9-----9---109---7-7---8-7-----2---3---2-----0---0-----|
|-9---9-9-----7---7-7-\-2-2---2---2-----9---9-----9---9-9---7-7---7-7-----2---2---2-----2---2-----|
|-9---9-9-----7---7-7-\-2-2---2---2-----9---9-----9---9-9---7-7---7-7-----2---2---2-----2---2-----|
|-7---7-7---5-5---5-5-\-0-0---0---0-----7---7-----7---7-7---5-5---5-5---0-0---0---0-----0---0--/7-|
|-------------------------------------0---------0-----------------------0-------------0-----0-----|

1'00": RIFF A
|---------------------------|----|-------------------------------------------|
|---------------------------|----|-------------------------------------------|
|---------------------------|-0/-|-----------------------------9-------------|
|---------5b---75-7-5--5b---|-/0-|-54-5-42-------54-5-42-------9-------------|
|-75-7-5-----7-------7----7-|----|---------5b7-3---------3b5-0-7-------------|
|-------7-------------------| 2X |-----------------------------0-----0\\\trem|
|multitrack backing gtrs arr for one:
|-1919-19----1717-17--16--17--18--|----|-1919-19----1717-17----2020-20----2121-21----19----|
|-2121-21----2020-20--21--22--21--|----|-2121-21----2020-20----2222-22----2222-22----21----|
|-1919-19----1818-18--20--21--18--|-0/-|-1919-19----1818-18----2121-21----2121-21----21----|
|-1818-18----1717-17--17--17--17--|-/0-|-1818-18----1717-17----1919-19----1919-19----21----|
|---------------------------------|----|---------------------------------------------------|
|---------------------------------|----|---------------------------------------------------|

|-----------------------------------------------------------------------------------------------|
|-------------2---3-2---------2-------------------------------2---3-2-----4---2---------10--9-\-|
|-9-----9-----2---2-2---------2-------------------9---9-9-----2---2-2-----4---2---------9---9-\-|
|-9---9-9---2-2---2-2-----4-\-2-------------2-----9---119-----2---2-2---4-4---2---------9---9-\-|
|-7-----7---0-0---0-0-----2-\-0---*-------2-------7---7-7---0-0---0-0---2-2---0---*-----7---7-\-|
|-----------------------0-------------0-4-------0-------------------------------------0---------|

|------------------------------------------------------------------------------------------|
|---2---2-2------4-\-2------------------------------------4-----------5-\--2---------------|
|---2---2-2------4-\-2---------9---9-\--4-----4-----4---6-4-----6---6-6-\--2-----2--6r4p2--|
|---2---2-2------4-\-2---------9---9-\--4---6-4---4-4---6-4---6-6---6-6-\--2-----2---------|
|-0-0---0-0---0h-2-\-0---*-----7---7-\--2---2-2---2-2-----2---4-4---4-4-\--0---34----------|
|-0-----------0--------------0-------------------------------------------------------------|

|----------------------------------------------|
|-0---2-0-----7---8-7-----2---3---2-----2---2--|
|-1---2-1-----7---7-7---2-2---2---2-----2---2--|
|-2---2-2---7-7---7-7---2-2---2---2-----2---2--|
|-2---2-2---5-5---5-5---0-0---0---0---*-0---0--|
|-0---0-0--------------------------------------|

RIFF A \

1'57"
|---------------------------------------------------------------------------------------|
|-9---109---7-7---7-7-----2---3---------------------9---109-----7---8-7-----2---3---2---|
|-9---9-9---7-7---7-7---2-2---2---------------------9---9-9---7-7---7-7-----2---2---2---|
|-9---9-9---7-7---7-7---2-2---2--------2------------9---9-9---7-7---7-7---2-2---2---2---|
|-7---7-7---5-5---5-5---0-0---0---2b--------------7-7---7-7---5-5---5-5---0-0---0---0---|
|------------------------------------4---3b---0---0-------------------------------------|

|--------------------------------------------------------------------------------------|
|------------------------------------------------9---109-----9---9---------------4-4-5-|
|---9---8-----8---/----11----6------9-----9------9---9-9-----9---9-----4---6-4---4-4-4-|
|---9---9-----9---/121212----7------9---119------9---9-9---9-9-9-9-9\--4---6-4---4-4-4-|
|---7---9---119---/121212----7------7---7-7------7---7-7---7-7-7-7-7\--2-----2---2-2-2-|
|-0-----7-----7---/101010----5----xx----------5/7--------------------------------------|
2'24"
|---------------------|-------------------------2-2---0--|
|----------7---2---3--|---------------2---3-2---4-4---2--|
|-6----7---7---2---2--|-9-9-----------2---2-2---4-4---2--|
|-6----7-------2---0--|-9-9---119---2-2---2-2---------2--|
|-4----5-------0---0--|-7-7-----7---0-0---0-0---------0--|
|---------------------|---------------------------------.....

2'35"
|---------------------------|----|-----------------------------------|
|---------------------------|----|-----------------------------------|
|---------------------------|-0/-|-----------------------------9-----|
|---------5b---75-7-5--5b---|-/0-|-54-5-42-------54-5-42-------9-----|
|-75-7-5-----7-------7----7-|----|---------5b7-3---------3b5-0-7-----|
|-------7-------------------| 2X |-----------------------------0-----|
|multitrack backing gtrs arr for one:
|-1919-19----1717-17--16--17--18--|----|-1919-19----1717-17----2020-20----2121-21--|------|-19----|
|-2121-21----2020-20--21--22--21--|----|-2121-21----2020-20----2222-22----2222-22--|------|-21----|
|-1919-19----1818-18--20--21--18--|-0/-|-1919-19----1818-18----2121-21----2121-21--|-0///-|-21----|
|-1818-18----1717-17--17--17--17--|-/0-|-1818-18----1717-17----1919-19----1919-19--|-///0-|-21----|
|---------------------------------|----|-------------------------------------------|------|-------|
|---------------------------------|----|-------------------------------------------|------|-------|

2'48"
|------------|--------------------------|----|------------------------------------------|
|------------|--------------------------|----|------------------------------------------|
|--------(0)-|--------------------------|-0/-|------------------------------55-55-55-55-|
|-7p5--/\(0)-|--------5b---75-7-5--5b---|-/0-|---------5b---7p5--5-7b8r7p5--55-55-55-55-|
|------------|75-7-5-----7-------7----7-|----|-75-75-7----7----7----------7-33-33-33-33-|
|------------|------7-------------------|----|------------------------------------------|

|------------------------------------------------12----------------------------------------------------|
|--2---------------------------------15b17---15b---15141312-------------12b-----------------------12b--|
|-\2-------------------------------------------------------15141214p12--12b--------12-------------12b--|
|-\2----24p24p2-2------7p5--------------------------------------------14----14p12--12------------------|
|-\0-3b--------4-------------7---------------------------------------------------14--14p121012/14------|
|-----------------0-----------6\/15--------------------------------------------------------------------|

_________________________________________________
[Vous devez être inscrit et connecté pour voir cette image]
Revenir en haut Aller en bas
simbaud
Administrateur de Queenland
simbaud

Messages : 2811
Date d'inscription : 08/06/2013
Age : 23
Localisation : Queenland (rires)

Les tablatures de A Night At The Opera Empty
MessageSujet: Re: Les tablatures de A Night At The Opera   Les tablatures de A Night At The Opera EmptyMar 24 Juin - 10:03

'39

intro
X X X X Am Am Am Am
G G

  G       D      Em        C     G    D   C      G
---3-------2------0----0----0-----3----2---0------3------|
---3-------3------0----0----1-----3----3---1------3------|
---0-------2------0----0----0-----0----2---0------0------|
---0-----0-0------2----2----2-----0--0-0---2-0_2--0------|
---2-2_3--------2-2--2-2--3-3-----2--------3------2------|
-3------------------------------3-3---------------3------|


  G       D      Em        C     G  D           G G G G (folk strum)
---3-------2------0----0----0-----3--2---------|
---3-------3------0----0----1-----3--3---------|
---0-------2------0----0----0-----0--0---------|
---0-----0-0------2----2----2-----0-----3-2-0--|
---2-2_3--------2-2--2-2--3-3-----2------------|
-3------------------------------3-3------------|


G (pickup chord)  D                         Em
        In the   year of '39.... Assembled here the volunteers

       C~       G          D              Em          Em7  In the
days when lands were few   Here the ship sailed out into the

C~                    D(add G) Dmaj       G
Blue and sunny morn   Sweetest sight ever seen.
G   D                           B7
And night followed day, and the story tellers say

        Em                   Am    (then passing notes C B A F#)
That the score brave souls inside

   G                         D
For many a lonely day sailed across the milky seas

C            Em    C     D       C  (G) D------
Ne'er looked back, never feared, never cried.

         G                           C            G
Don't you hear my call, though you're many years away,

G                         D
Don't you hear me calling you

              G      F#/G   Em    D      C    B/G        Am
Write your letters in the sand for the day I take your hand

       Em           D             G
In the land that our grandchildren knew.

In the C~, I add D&G on top:

|--3
|--3
|--0
|--2
|--3
|--X

Likewise, the D add G is

|--3   (where you add the G)
|--3
|--2
|--0
|--X
|--X


In the year of '39 assembled here the Volunteers
In the days when the lands were few
Here the ship sailed out into the blue and sunny morn
The sweetest sight ever seen.

And night followed day
And the storytellers say
That the score brave souls inside
For many a lonely day sailed across the milky seas
Ne'er looked back, never feared, never cried.

Don't you hear my call though you're many years away
Don't you hear me calling you
Write your letters in the sand
For the day I take your hand
In the land that our grandchildren knew.

In the year of '39 came a ship in from the blue
The Volunteers came home that day
And they bring good news of a world so newly born
Though their so heavily weigh
For the earth is old and grey, to a new home we'll away
But my love this cannot be
For so many years have gone though I'm older but a year
Your mother's eyes in your eyes cry to me.

Don't you hear my call though you're many years away
Don't you hear me calling you
All the letters in the sand cannot heal me like your hand

For my life
Still ahead
Pity Me.

_________________________________________________
[Vous devez être inscrit et connecté pour voir cette image]
Revenir en haut Aller en bas
simbaud
Administrateur de Queenland
simbaud

Messages : 2811
Date d'inscription : 08/06/2013
Age : 23
Localisation : Queenland (rires)

Les tablatures de A Night At The Opera Empty
MessageSujet: Re: Les tablatures de A Night At The Opera   Les tablatures de A Night At The Opera EmptyMar 24 Juin - 10:05

Seaside Rendezvous

intro (piano)
|-------------3-------------------------------------------------------------------|
|------------------6-----5---3---3---2---3-2---3-10---8---6---5-3-----------------|
|-0h2---3/4--------4-----4---4---4---3---4-3---4-10---9---7---5-4-----------------|
|---------------5------5-------------------------12---10--9---7-5-----------------|
|-2h3---4/5-----------------------------------------------------------------------|
|----------------------------3---3----------------------------------3-3--3-3--3-3-|

C/add6
Seaside - whenever you stroll along with me I'm merely contemplating
G7/6 Dm/addC# 3xx00x x0x01x x2x031 x0x01x 3xx00x
what you feel inside meanwhile I ask you to be my Cle - men - tine
C -------0--
You say you'd have to tell your daddy if you can ---1-3----
F G C Am ---3-3-3--
I love you madly ----------
F(VIII) Em(VII) Dm C A# G -3--------
Let my imagination run away with you gladly ----------
C B A# A
A brand new angle - highly commendable

B-8--7---6--3---5-
G-9--8---7--4---5-
D-9--8---7--5---5-
Seaside Rendezvous

F
You're so romantic - can we do it again
3x231x
Can we do it again sometime,
C7 A D7
Fantastic, c'est la vie mesdames et messieurs

And at the peak of the season, the
Mediterranean -, this time of year, it's so fashionable,
I feel like dancing - in the tain,
All I need is a volunteer -
Dancing - what a damn jolly good idea -
It's such a jollification - as a matter of fact, so tres charmant my dear -

Underneath the moonlight - together we'll sail across the sea -
Reminiscing every night
Meantime - I ask you to be my valentine
You say you do if you did but you daren't I'll be your Valentino -
We'll ride upon an omnibus and then the casino -
Get a new facial - so sensational -
Seaside Rendezvous - so adorable,
Seaside Rendezvous
Seaside Rendezvous

_________________________________________________
[Vous devez être inscrit et connecté pour voir cette image]
Revenir en haut Aller en bas
simbaud
Administrateur de Queenland
simbaud

Messages : 2811
Date d'inscription : 08/06/2013
Age : 23
Localisation : Queenland (rires)

Les tablatures de A Night At The Opera Empty
MessageSujet: Re: Les tablatures de A Night At The Opera   Les tablatures de A Night At The Opera EmptyMar 24 Juin - 10:06

The Prophet's Song

all guitars are in drop D tuning

|------------1--------------------------------------1-----|
|--------1------3------------------------------1----------|
|--------3------2------------------------------3----------|
|--------3------0------------------------------3----------|
|---------------------------------------------------------|
|-0-------------------------------------------------------|
| two guitars: |
| guitar left >- 1 octave -> guitar right |
| |------------------13--------| |------13----|
| |----------------------------| |-11---------|
| |----------14-15--------15---| |-10---------|
| |-12-14-15-------------------| |-12---------|
| |----------------------------| |------------|
| |----------------------------| |-- left --|


|-----------1-----------(gtr.l--10)----------1-----|
|---------3---3--------------------------1---------|
|-------2-------2---------(gtr. r.)------3---------|
|-----0-----------0---0---(-----12)------3---------|
|-------------------0---0---0---0------------------|
|-0-----------------------3---3-0------------------|


|-1-------0-----------------------------------5-----------|
|-3-------1-------3---------------1h3-3p1-3---8-----------|
|-2-------0-------3---0---2-------0h2-2p0-2---7-----------|
|-0-----------0---3-------0-------0-----------------------|
|-----------------1---1h3---------------------------------|
|-----0-----------------------0---------------------------|
| right guitar (koto) | left "guitar"
|-----------------------1013------------0-----5-|-------------------------17-|
|---------------------11--15----------6---------|----------------15-17-18----|
|---------------------10--14--------------7-----|----------14-15-------------|
|---------------------12--15--------------------|-12-14-15-------------------|
|-----------------------------------------------|----------------------------|
|-----------------------------------------------|----------------------------|

Oh oh...
|-1-------0---------------1---------------------------0----0--|
|-3-------1-------1h3-3p1-3-------1h3-3p1-3---3p1-3---1----1--|
|-2-------0-------0h2-2p0-2-------0h2-2p0-2---2p0-2---0----0--|
|-0-----------0---0-------0-------0-------0---0---0--------2--|
|-----------------0---------------0------------------------3--|
|-----0-----------------------0-------------------------------|
|guitar right |
|-------------------------------------------------------------|
|-6-------5-------(h7)------------6---6p5-6---6p5-6---5---5---|
|-7-------5-------5h7-7p5-7-------7---7p5-7---7p5-7---5---5---|
|-7-------5-------5h7-7p5-7-------7-------7-------7---5---5---|
|-----5------5----5---5-----------------------------------3---|
|-----------------------------0-------------------------------|
|guitar left |
|-------------------------------------------------------------|
|---------6---------------6---------------------------5---5---|
|---------7-------5h7-7p5-7-------5h7-7p5-7---7p5-7---5---5---|
|---------7-------5h7-7p5-7-------5h7-7p5-7---7p5-7---5---5---|
|---------------------------------------------------------3---|
|-----------------------------0-------------------------------|


|-1-------0-----------------------------------0---|
|-1-------1-------3---------------1h3-3p1-3---3---|
|-2-------0-------3---0---2-------0h2-2p0-2---3---|
|-3-------2-------3-------0-------0---------------|
|-0-------3-------1---1h3-------------------------|
|-----------------------------0-------------------|
|guitar right
|-------------------------------------------------|
|-----------------3---3---3-------------------3---|
|-----------------3---3---2-------5h7-7p5-7---3---|
|-3-------5-------3---3---3-------5h7-7p5-7---3---|
|---------------------------------5-----------1---|
|-------------------------------------------------|
|guitar left
|-------------------------------------------------|
|-1-------5-------3---3---3-------------------3---|
|-2-------5-------3---3---2-------5h7-7p5-7---3---|
|-3-------5-------3---3---3-------5h7-7p5-7---3---|
|-0-------------------------------5---5-------1---|
|-------------------------------------------------|


rythm guitars:
0:51
two gtrs
|--------------------------------------------------------|
|(2)--------------------------gtr.r.------gtr.l----------|
|-2---------------------------2-let ring--2-let ring-----|
|-2---------------------------2-----------2-------2---2--|
|-0---0---0---0---0---0---0---0---0---0---0---*----------|
|--------------------------------------------------------|

I dreamed...
|------------------------------------------------------------------|
|--------------------------------------------1------3--------------|
|-2-----------------------------------2------0------2---0---2------|
|-2-------5---3---2---3---5---2-------2------2------0---0---2------|
|-----0-0-----0---0---0---0---0-------0------3----------2---0------|
|------------------------------------------------------------------|

|-------------------------------------------------------------|
|---------------------------------------------------------3---|
|-2---------------7-----------7---9-----------9-------2---2---|
|-2---2---2---2---7---7---7---7---9---9---9---9-----2---------|
|-0---0---0---0---5---5---5---5---7---7---7---7---0-----------|
|-------------------------------------------------------------|

|-----------------------------------------------------------|
|----------------------------------------------3---3---3----|
|-2-----------------------9\-----2------0------3---3---2----|
|-2---2---5---7---7---7---7\-----2------2------0---0---0----|
|-0---0---0---0---0---0---0------0------3-------------------|
|-----------------------------------------------------------|

1'21"
|----------------------------------|
|----------------------------------|
|----------------------------------|
|-2-----------------------------7\-|
|-0---1---2---3---4---5---6---7----|
|----------------------------------|

main riff:
|--------------------------------------------------------------|
|---------------------------------------------------------5----|
|---------5-----------7---5---7\--------------7\5-7---5---5----|
|-----0---5-----------7---5---7\--------------7\5-7---5---5----|
|-----0---3-----------5---3---5\----------0---5\3-5---3---3----|
|-0-3---------0---*---------------0---3------------------------|

|--------------------------------------------------------------|
|--------------------------------------------------------------|
|----------5---------------2-----------------------------------|
|-3--------5-------3---3-3-0----------0---0---10---------------|
|-3--------3-------1---1-3------------0---0---8----------------|
|-3-------------------------------0-3--------------9\\---------|

|--------------------------------------------------------------|
|--------------------------------------------------------------|
|---------5-----------7---5---7\--------------7\5-7---5---5----|
|-----0---5-----------7---5---7\--------------7\5-7---5---5----|
|-----0---3-----------5---3---5\----------0---5\3-5---3---3----|
|-0-3---------0---*---------------0---3------------------------|

... white dove
|--------------------------------------------------|
|--------------------------------------------------|
|----------5---------------2------------------7----|
|-3--------5-------3---3-3-0----------0---0---5----|
|-3--------3-------1---1-3------------0---0---5----|
|-3-------------------------------0-3---------5----|

|------------------*-------------------*------------------|
|---------------------------------------------------------|
|-/9-------------------------------2-----------2---2------|
|-/7-------2---2---2---2---2---2---2-----7-5---3---2...---|
|-/7-------0-x-0-x-0---0---0---0---0---0-0----------------|
|-/7---0--------------------------------------------------|


rythm guitars
2:39
|---------------------|
|-----------3---------|
|-------2---2---------|
|-------0---0---4-----|
|...----0-------4-----|
|---0-3---------4-----|

|-1---------------|-1-1-1-1---1-1-1---|
|-3---1---1---1-----1-1-1-1---1-1-1---|
|-2---0---3---2-----3-3-3-3---2-2-2---|
|-0---2---3---3---3---------3---------|
|-----3-------------------------------|
|-----------------|-------------------|

D5 G5 D5 (C5)

2:56
|---------------------------------------------2---2---02--------|
|---------------------------------------------3---3---33--------|
5\------7--7--------------4--4----4-----------2---2---22----5---|
5\-5--5---5-5----x----4-4---4---4---44----5---0---0---00----5---|
3\-5--------5-----2---2-------0-------5-5---0-------00-----03---|
|--5--------5-----2-------------------5-----0-------------------|
...await you
|-------------2---2----------------|
|-------------3---3-----------3----|
|-0/----------2---2--0---35---5----|
|-/0--5-5-5---0---0-------5-0-5----|
|-----5-5-5-0---------3-----0-3----|
|--...5-----0---------3------------|


second part

5:51
delay on
|----------------------------------|
|----------------------------------|
|-------7---3------7---4-----------|
|-5-----7---3------7---4---6---3---|
|-5-----5---1------5---2---6---3---|
|-5------------------------6---3-0-|delay off

|-----------------*----------------*-----------------------*---------------|
|--------------------------------------------------------------------------|
|--------------------------------------------------------------------------|
|---2---2---2-0-2---2---2----2-0-2-----10-8--10---10-10-10-7-7-5-7---7-5-7-|
|--2--0----2---2-2-2--02-2--22-0-2-1010----1010---10-10-10-7-7-5-7---7-5-7-|
|-2--0-2-----0----2--0------2-----/10--------10---10-10-10-7-7-5-7---7-5-7-|

repeat

riff behind the solo
|----------------------------------------------------------------------------------------------|
|----------------------------------------------------------------------------------------------|
|-------------2-----------2-----------------2-----------2------------------2-----------2-------|
|---------2---2---*---2-------2---------2---2---*---2-------2----------2---2-------2-------5---|
|-----2---2---0-----3---------2-------2-2---0---*-3---------2--------2-2---0---0-3---------5---|
|-2-5-----2-------------------2---2-5---2-------------------2----2-5---2-------------------5---|


|--------------------------------------------------------------|
|--------------------------------------------------------------|
|---------5-----------7---5---7------------7p5-7p5-7---2---2---|
|-----0---5-----------7---5---7--------0---7p5-7p5-7---2---2---|
|-----0---3-------*---5---3---5--------0---5---5---5---0---0---|
|-0-3---------0-------------------0-3b-------------------------|

G5 A#5 C5
A#5 F5 G5


guitar solo with wah
|-12---------------------------------12------------------------------------------------|
|-----15--12-----------------------------15--b17_r15--b17--15p12h15p12--*--------------|
|--------------b15--14--12--14--b16----------------------------------------15--14--12--|
|--------------------------------------------------------------------------------------|
|--------------------------------------------------------------------------------------|
|--------------------------------------------------------------------------------------|

|-----12--15--b17vr15----b19_r17--15------------------------15--------------|
|-12----------------------------------17b20v----15--16--17------17b20r17----|
|---------------------------------------------------------------------------|
|---------------------------------------------------------------------------|
|---------------------------------------------------------------------------|
|---------------------------------------------------------------------------|

|---------------------------------------------------------20b22v-------------|
|-b20_r19_p17------17--b22--b22_r20--17-------17--17--17-------------14\-----|
|--------------20------------------------19b---------------------------------|
|----------------------------------------------------------------------------|
|----------------------------------------------------------------------------|
|----------------------------------------------------------------------------|


solo goes on
|-20b22v--b22r20-17--------------_____-------10---------------------------------|
|------------------b22r20-b21-20-21r20p18-------13------------------------------|
|--------------------------------------------------12-10b-12-10-----------------|
|---------------------------------------------------------------12--------------|
|--------------------------------------------------------------------12--12v\3--|
|-------------------------------------------------------------------------------|
|right guitars arranged for one
|-17---12__b14-12b14r12b14--------------------------14-12-14-12-14---12--12-----|
|-19---13__b15-13b15r13b15--------------------------15-13-15-13-15---14--14-----|
|-19---12__b14-12b14r12b14--------------------------14-15-14-15-14---14--14-----|
|-------------------------------------------------------------------------------|
|-------------------------------------------------------------------------------|
|-------------------------------------------------------------------------------|
|left guitars...
|---------------------------------14-12-14-12-14--------------------------------|
|---------------------------------15-13-15-13-15----------------------5---5-----|
|---------------------------------14-12-14-12-14----------------------6---6-----|
|---------------------------------------------------------------------7---7-----|
|-------------------------------------------------------------------------------|
|-------------------------------------------------------------------------------|


|rhythm guitars:
|F5 A#5 C5
|A#5 F5 G5
|
|three guitars in harmony:
|right
|-13---10-12v----13---17-19v--|
|-13---11-13v----15---18-20v--|
|-14---10-12v----15---17-19v--|
|-----------------------------|
|-----------------------------|
|-----------------------------|
|left
|---------------------|
|-6-----6--5------6---|
|-5-----3--5------7---|
|-7-----3--5------8---|
|---------------------|
|---------------------|

riff (1'21")
main riff X 2

second solo
|-----------------------------------------------13-15-b17-15-13v---------|
|-13b15v---b15_r13-10-15b18----b18_r15-13-14-15--x-----------------15\1--|
|------------------------------------------------------------------------|
|------------------------------------------------------------------------|
|------------------------------------------------------------------------|
|------------------------------------------------------------------------|

clean guitars
|-10p7-8p7-8p7---10p7-7-8p7-8p7---7-|
|--------------8----------------8---|
|-------------<0>--------------<0>--|
|-----------------------------------|
|-----------------------------------|
|-----------------------------------|
| |
|-----------------------------------|
|-10p7-8p7-8p7---10p7-7-8p7-8p7---7-|
|--------------7----------------7---|
|-----------------------------------|
|-----------------------------------|
|-----------------------------------|

repeat

x133x0

acoustic outro
|-----1------------------------------------1----------------------------------------|
|-1-------3-------------------------------3-3---------------------------------------|
|-3-------2------------------------------2---2--------------------------------------|
|-3-------0----------------------------0------0--0------------2h3p2p0----0----------|
|----------------------------------------------0---0---0-------------3p0---3/5v\\---|
|----------------------------------0-----------------3---3-0---------------------0--|
|left gtr.
|---------22-18-17--------------------|
|------------------18-17--------------|
|------------------------19-15-14-----|
|---------------------------------12--|
|-------------------------------------|
|-------------------------------------|
| right gtr.
| |-----------|
| |-11-10-----|
| |-----------|
| |-------12--|
| |-----------|
| |-----------|


|-----------------1-------0-------5----------10---|
|-1---------------3-------1-------6---6-8---10----|
|-3---------------2-------0-------7--------10-----|
|-3---------------0-------0-------0---8-----------|
|-----------------------------------------12------|
|---------------------0-------0-------------------|
|two gtrs.: r.g. >1 octave> l.g.| left guitar |
|-----------13--| |------12----13---|
|------11-------| |---11------15----|
|---------------| |--10------14-----|
|---------------| |-12--------------|
|---------------| |-----------------|
|---------------| |-----------------|


|-5-------3---------0---0-1---------1------------|
|-----6-------5---3---3---3--------3-3-----------|
|-----7-------5-------0---2-------2---2----------|
|-----7-------5-----------0------0-----0----<5>--|
|-5-------3-------1---3---------0-----------<5>--|
|------------------------------0--------0--------|


|-1-------0--------------12-13------6-------5-------3-------1-------0------3----|
|-3-------1-------3---11----10--------------------------1-------0---------------|
|-2-------0-------3---10----10----------5-------5-----------------------0-----0-|
|-0-----------0---3---12----10------5-------3-------2-------0-------------------|
|-----------------1------------12----------------------------------3------------|
|-----0-------------------------------------------------------------------------|
| Left gtr.
| |------12--13-|
| |---11-----15-|
| |--10------14-|
| |-12----------|
| |-------------|
| |-------------|


|-----0-----------3--------0-----------0------<12>---|
|-6-----/-3---------------5-5--------5---------------|
|-------------0----------0---0-----0-----5----<12>---|
|-----------------------5-----5--5----------10-------|
|-5-----/-2------------3-------3---------------------|
|----------------------------------------------------|

guitar harmonies arranged for one guitar

0:51 guitars (middle) arranged for one
|------------------------------------------------------------------------|
|------------------------------------------------------------------------|
|--9----9h10p9-----7---7h9p7---h9p7-5-----5-4-5ph------------------------|
|-10---10h12p10----9---9h10p9-------7-------5-7----7--7--7---------------|
|-----------------------------------------7--------7--5--3---5p3\2---0---|
|------------------------------------------------------------------------|

2:17
|------15-----------------------------|
|-----------10---10---12---13----10---|
|-14--------10----9---10---12-----9---|
|-----------12---10---12---14----10---|
|-------------------------------------|
|-------------------------------------|

2:22
|------------------------------------|
|-2---3---3---5---5---6---6---9-10---|
|-2---3---4---5---6---7---8---9--9---|
|-2---3---5---5---7---7---9---9-10---|
|------------------------------------|
|------------------------------------|

2:40
|-5-4-5-13-14---14---|
|-7-6-7-12-10---14---|
|-6-5-6-13-11---14---|
|--------------------|
|--------------------|
|--------------------|

5:58
|------------------------5b7---------------------------------------------------------|
|-7b8--------------------7b8---------5-3-----------3b5____-5_r3_b5---5-3-5---8---5---|
|-7b9--------------------7b9-----4-3-------------5-3b5____-5_r3_b5---6-4-6---4---6---|
|-7b9--(-----0-2---------7b9--)----------7-5---5---3b5____-5_r3_b5---7-5-7---5---7---|
|------(0-2-------------------)--------------3---------------------------------------|
|------(---------2-4-2-0-0---2)------------------------------------------------------|

|--------------------------------------------------------------------------|
|-7b8-----------------7b8---8-7-8-10-12--15b17--15b17---8-10-8-10---8b10---|
|-7b9-----------------7b9rb-9-8-9-11-12--14b16--14b16---7--9-7--9---7b9----|
|-7b9--(--------2--)--7b9---9-8-5-13-14--16b17--16b17---9-11-9-11---9b11---|
|------(0-2---2-...)-------------------------------------------------------|
|------(----2------)-------------------------------------------------------|

|-0--3------0--------0--------0---------0-...-15v--17v-----b19v---|
|-------8-------10-------12------------15-----12v--14v-(12)-8v----|
|-------9--------9-------12------------16-------------------------|
|-------9-------11-------14-------19------------------------------|
|-----------------------------------------------------------------|
|-----------------------------------------------------------------|

_________________________________________________
[Vous devez être inscrit et connecté pour voir cette image]
Revenir en haut Aller en bas
simbaud
Administrateur de Queenland
simbaud

Messages : 2811
Date d'inscription : 08/06/2013
Age : 23
Localisation : Queenland (rires)

Les tablatures de A Night At The Opera Empty
MessageSujet: Re: Les tablatures de A Night At The Opera   Les tablatures de A Night At The Opera EmptyMar 24 Juin - 10:07

Love Of My Life

Piano arranged for classical guitar

Intro
* . . . * . . . * . . .
|-----------------6---5---3---1-3------8------------|
|-5---6---5-6-6-------------1---------------8-------|
|---5---5-------5---5---5---------9-----------------|
|-8---7---8---7---5---3---2---0-----10---10---------|
|---------------------------------------------------|
|---------------------------------8-----------------|
|
|alternate ending of the above line (acoustic gutiar fill)
| * . . .
|---------0------<12>-----------|
|-------5---5-------------------|
|-----0-------0--<12>-----------|
|---5-----------5-10------------|
|-3-----------------------------|
|-------------------------------|


* . . . * . . . * . . . * . . .
|-----6---5-6-6---10----8h10php----13-8-------------------3---3---3---3---|
|-8-6---6-------6---------------11------6---6-8-6---6-8-6-6---6---3---6---|
|-8---7---8---7------10-------------------7-------5-------4---5---4---4---|
|-----------------8-----7-------------7---8-------7-----------------------|
|-------------------------------10----------------------------------------|
|---------------------------------------------------------3-3---3---3---3-|


Verse
* . . . * . . . * . . . * . . .
|-------8-------------5-----5-----5-----10----8---------3---3---3---|
|-5-3-5-8---8---------5-5---5-5---6-5-6-10---10-----0---1---3---6-3-|
|-5-4-5-9---9-----------5-----5---7-5-7-10------7-0-0---2---4---4---|
|----------10-------7-----------750---------------------------------|
|-3---------------0-------0-----------------------------------------|
|---------8---8-------------------------------------3-----3---3-----|

* . . . * . . . * . . .
|-------5---3---5------13-8----13-8----5---5-------5---|
|-5-3-5-6---5---6------13-10---13-10---6---6---5---5---|
|-5-4-5-3---3-------10----10------10-----7---7-5---5---|
|--------------------------------------0---------7---7-|
|-3-----3---------8------------------78--------0-------|
|------------------------------------------------------|

3/4 2/4
* . . . * . . * . . . * . * . . .
|-----1---------------0---1---6---6---3---6---------------10----8---6-8-5---|
|-3---3-3---1-----3---1---3---6---6---5---5---10-------10---------6-------6-|
|-3---3-3---2-2---3-----2---2---7---7---5---5-10----10-------10-------------|
|---3---3---3---3---3-----0---5------------------10--------8----7---5---3---|
|-1---------------1---0---------------3-------8-----------------------------|
|---------1-----------------------------------------------------------------|

* . . . * . . .
|-----------------3---3---3---3---|
|---6-8-6---6-8-6-6---6---3---6---|
|-7-------5-------4---5---4---4---|
|-8-------7-----------------------|
|---------------------------------|
|-----------------3-3---3---3---3-|

repeat VERSE
altered from measure 11:
* . * . . . * . . .
|----------8-----------------8---6-5-6-1-1---|
|-10----10---5---6---5-6-6-----6-------------|
|----10--------5---5-------5-8---7-----------|
|------------8---7---8---7-------------0-1-3-|
|--------------------------------------------|
|--------------------------------------------|

2/4
* . * . . . * . . .
|-10----8---11----10----8---6h8php----13-8-----------|
|---------6---------------6--------10----------------|
|----10--------10----10------------------------------|
|-8-----7---10----8-----7---5------------------------|
|----------------------------------8-----------------|
|----------------------------------------------------|


Bridge and solo:
(for tempo changes listen to the original record)

* . . . * . . . * . . . * . . .
|-5---5-5-------5-----5---------------------------1-------1---0---|
|-6---6-6---6-----5---5-5---------------3---------1---3---1---2---|
|---7---7-7---7-------5-5---5-----3---3-3---3-----2---3-----2---2-|
|-0-----------------7---7---7---7---3---3---3---3---3---5---------|
|-----------------0-----------0---1-----------1---------------0---|
|-------------------------------------------------1---------------|

* . . . * . . . * . . . * . . .
|-1-1-1-1---1-----------0---0-------------------------1-1---1-----|
|-3-3-3-3---3---3-1---1-1---1-----------4---3---------3-3---3-----|
|-----------------2-2-----2---2-2-----2-2---2-2-5-3p0-3-3---3-----|
|-0-------0---0---2-------------4---4---4---4---------------------|
|-----------------0-----------------------------------------------|
|---------------------------------2---------------3-------3---3-3-|

2/4
* . . . * . * . . . * . . . * . . .
|-0---1---3---6---5---5-------------------6---5---3---1-3------8------------|
|-1---3---5---8---6---6---5---6---5---6-------------1---------------8-------|
|-------------------5---5---5---5---5---5---5---5---------9-----------------|
|-------------------------8---7---8---7---5---3---2---0-----10---10---------|
|-3-33--33--33--------------------------------------------------------------|
|---------------88----------------------------------------8-----------------|


* . . . * . . . * . . . * . . . * . .
|-----6---5-6-6---10------8-8-6-5---8-----6-6-5---------0---1---3---5---10---8---|
|-8-6---6-------6-----------------6-6-----------8-6-3-1---1---1---1------------6-|
|-8---7---8---7--------10---------------5---7---8---3---3---2---------5----------|
|------------------8--------7-------7---------------------------2---3---8----7---|
|--------------------------------------------------------------------------------|
|--------------------------------------------------------------------------------|


* . . . * . . . * . . . * . . .
|-----6---5-6-6---10------8-8-6-5---13----12----10----8-----------------8--10-|
|-8-6---6-------7-----------------6---------------------6-6-5-6-8-10----------|
|-8---7---8---7--------10--------------10----10----10----------------10-------|
|------------------8--------7-------------10-----8----7-7-7-5-7-8-10----------|
|-----------------------------------------------------------------------------|
|-----------------------------------------------------------------------------|


* . . . * . . .
|-10----8---6-8-5---11---10----15----14----|
|---------6-------6------------------------|
|----10---------------(10---10)------------|
|--8----7---5---3---10----8----13(15)12(15)|
|------------------------------------------|
|------------------------------------------|

abrupt slow down

* . . . * . . . * . . . * . . .
|-1---1---1---1---1---1---1---1-------6---6---6---6---6---6---6---|
|-3---3---3---3---1---1---1---1-------8---8---8---8---8---8---8---|
|-3---3---3---3---2---2---2---2-----9---9---9---9---9---9---9---9-|
|-----------------------3---3-------------------------------------|
|-----------------------------------------------------------------|
|-3-3---3---3---3-1---------------8-------------------------------|


Verse ending: 3/4
* . . . * . . . * . . * . . .
|-5---5-------5-----------------------0---1---6-5-----10-8-----|
|-6---6-------5---3---3-----1-----3---1---3---6---6----8---8---|
|---7---7-5---5-5-3---3-----2-2---3-----2---2-7-----7----9---9-|
|-0---------7---7---3---3---3---1---3-----0---5------------8---|
|---------0-------1---------------1---0------------------------|
|-------------------------1----------------------------8-------|

* . . . * . . . * . . .
|-------------8-----13----5---5-5---5----10-------5---------|
|-------10----10----10----6---6-6-----------5-----5---5-----|
|-10----10-------10----10---7-7-7-7---10----5---5-5-----5---|
|----10----10-------------0-------------------7-----7-----7-|
|-8-----------------------------------------0---------------|
|-----------------------------------------------------------|

* . . . * . . .
|-------------3---------1-----8-13---|
|-3---3---2---2-------1-1-10-10-13---|
|-3---3---3-3---3---2-2-2-10-10-10---|
|-5-5---3---------3-3-3-3-10-10------|
|-------0-1-------3-3-3---8----------|
|-3---------------1-1----------------|

_________________________________________________
[Vous devez être inscrit et connecté pour voir cette image]
Revenir en haut Aller en bas
simbaud
Administrateur de Queenland
simbaud

Messages : 2811
Date d'inscription : 08/06/2013
Age : 23
Localisation : Queenland (rires)

Les tablatures de A Night At The Opera Empty
MessageSujet: Re: Les tablatures de A Night At The Opera   Les tablatures de A Night At The Opera EmptyMar 24 Juin - 10:08

Good Company

solos and multitrack guitar fills

multitrack arr. for one gtr
|----------14-------11-14---18__p17-18___\16---18p16---14---|
|-------16-------13---------18__p17-18___\16--(18p16---14)--|
|----16-------14------------18__p17-18___\16---18p16---15---|
|-16------------------------6-------6____\3-------3___//4---|
|-14----------12--------------------------------------------|
|-----------------------------------------------------------|

one guitar ______
|-----------11-9h11p9---|------------------14------------------|
|-----9-12--------------|-14_h16p14p13--14-----14-16--17/18v---|
|-10--------------------|--------------------------------------|
|-----------------------|--------------------------------------|
|-----------------------|--------------------------------------|
|-----------------------|--------------------------------------|

|---------14h16phphph--|--13/14____----------------------|-14----------------|
|-------14-------------|-----------------------------14--|----14-11----------|
|-----15---------------|-----------11-13-14-14-13-11-----|----------11h13hp..|
|-16-------------------|---------------------------------|-------------------|
|----------------------|---------------------------------|-------------------|
|----------------------|---------------------------------|-------------------|

multitrack backing with wah-wah
|----------------------------------|------------------------------------------|
|--------------------------2---2---|------------------------------------------|
|-4------4---4-------3-----3---3---|--10---9--8-----6--5--4----3----3-3---3---|
|-3------3---3-------4-----4---4---|--11--10--9-----8--7--6----4----4-4---4---|
|-4------4---4-------4-------------|--13--12--11----8--4--4----4----4-4---4---|
|----------------------------------|------------------------------------------|

|----------------------------------------------------14---|
|-------------------------------9----------------14--11---|
|-6-----9----8----11-----------10------------11--11-------|
|-8----11----9----10----12-12--11--------11--11------11---|
|-9----13----9----12----12--9----------------13-----------|
|---------------------------------------------------------|

|----------14-------11-14---18p17-18p16---18p16--------------21--b26v--|
|-------16-------13---------18p17-18p16---18p16-----------23-----------|
|----16-------14------------18p17-18p16---18p16--------23--------------|
|-16----------------------------------------------- e|-------18---21v--|
|-14----------12----------------------------------- B|----19-19---23v--|
|-------------------------------------------------- G|-18-18-----------|
D|-20--------------|


|--------------------------------------------------------------------|
|-12___h14p12-11___h12p11-9___h11p9-7___h9p7\6-----------------------|
|-13___h15p13-11___h13p11-8_____h10p8___h10p86----8----6-----5---6---|
|-13___h15p13-11___h13p11-9___h11p9-8___h9p8\6----9----8-----7---7---|
|------------------------------------------------11---11----10--11---|
|--------------------------------------------------------------------|

|-------------------------13-13--14-14---|
|-10---11---11-10--11-14--12-13--14-14---|
|-10---11---11-10--11-15--13-14--15-15---|
|-10---11---11-10--11-16-----------------|
|----------------------------------------|
|----------------------------------------|

|--------------------------------------------------|
|-----------------------------7-----7----7----6----|
|-8------8--4/6/8-------8-----4-----4----4----7----|
|-9------9------9---6/8/9-----------4--------------|
|-9------8------7-------6-----5----------5----7----|
|--------------------------------------------------|
...

|--------------------------------------------------|
|-7--9-10--11----14----16----19---------17-18------|
|-6--9-10--11----15----16----19----7-6--15-16------|
|-8--9-10--11----16----16----19----7-6--17-18...---|
|--------------------------------------------------|
|--------------------------------------------------|

|----------|--------------------...------5-6---|
|-...7-----|-4_____\/4__--------...------7-6---|
|-...8-----|-4______________4--------------7---|
|-...8-----|-4__\3__\2---A2-D1----0------7-8---|
|-...6-----|-----------------------------------|
|--(-2__..)|-4______\0___/2/4____/7__/14\7\6---|


2:22
|-------------13h14h15h16-|---------------------------|----------------------|
|-15h16h17h18-------------|-----------11------11-14---|----------------------|
|-------------------------|-11-------------11---------|----------------------|
|-------------------------|------11-------------------|-7_/8--10_/11---------|
|-------------------------|---------------------------|---------------8_/9---|
|-------------------------|---------------------------|----------------------|

2:38
|--------------------------------------------------------------------|
|----------------14---17---18-18-17---16---15__\14-14-13---12--------|
|-15h16p15p14-15------------------------------------------------14---|
|--------------------------------------------------------------------|
|--------------------------------------------------------------------|
|--------------------------------------------------------------------|
| |
| |-------------------------------------------------|
| |--13---14-14-13---12---12---11-11-10---9---------|
| |--------------------------------------------10---|
| |-------------------------------------------------|
| |-------------------------------------------------|
| |-------------------------------------------------|
| |
| |-----------------------------------------------|
| |-----------------------------------------------|
| |-----------------------------------------------|
| |-----------------------------------------------|
| |--10---11-11-10---11----9-9-8-8----------------|
| |--------------------------------9----9----8----|


|-----14-11------------14-11v-------------------------------------------------|
|-11---------------11------------11-12-12-11---12-----------------------------|
|--------------14-----------------------------------12---13-p13-12---13---14--|
|-----------------------------------------------------------------------------|
|-----------------------------------------------------------------------------|
|-----------------------------------------------------------------------------|
|
|-----------------------------------------------------------------------------|
|-----14-11------------14-11v-------------------------------------------------|
|-11-----------10--11------------12-13-13-12---13-----------------------------|
|---------------------------------------------------14---15-15-14---15---15---|
|-----------------------------------------------------------------------------|
|-----------------------------------------------------------------------------|
|
|-----------------------------------------------------------------------------|
|-----------------------------------------------------------------------------|
|-----------------------------------------------------------------------------|
|-----------------------------------------------------------------------------|
|--------9------------9--9----------------------------------------------------|
|_/9------------8--9-------------12-13-13-12---13----8----9--9--8----9----8---|

|------------------------------------------|
|-11-11-10-11-12-12-11-12-13-13-12-13-14---|
|------------------------------------------|
|------------------------------------------|
|------------------------------------------|
|------------------------------------------|
|
|------------------------------------------|
|------------------------------------------|
|-11-11-10-11-13-13-11-13-14-14-13-14-15---|
|------------------------------------------|
|------------------------------------------|
|------------------------------------------|
|
|------------------------------------------|
|------------------------------------------|
|------------------------------------------|
|------------------------------------------|
|-------9----------------------------------|
|--9---------11-11-11-11-13-13-13-13-14----|

|-14-14-13-14------14-14-13-14----------------------------------------14---|
|------------------------------------------11---11p10p9------------14------|
|-------------11---------------11-----10----------------11------15---------|
|------------------------------------------------------------16------------|
|--------------------------------------------------------------------------|
|--------------------------------------------------------------------------|
|multitrack
|-----------------------------------------------------------|
|------------------------------3----------------------------|
|--------------9__\8-----------5------6----10---10-9-8--6---|
|-------------11__\9-----------7------9----11---11-9-9--8---|
|-----------------------------------------------------------|
|-----------------------------------------------------------|

|-------------------------18p16p14-16p14-18p14------------14------------14--|
|-14h16phphp...--14h16h18------------------------------14------------14-----|
|---------------------------------------------------15------------15--------|
|------------------------------------------------16------------16-----------|
|---------------------------------------------------------------------------|
|---------------------------------------------------------------------------|

|----------------------------------------------------------------------------|
|-11h12h13h14----14h16h17-18p17p16p14----14h16p14------16-14-----------------|
|-------------------------------------------------17-----------15------------|
|-----------------------------------------------------------------16--13hp---|
|-------------------------------------------------------------------------16-|
|----------------------------------------------------------------------------|

|---------------------------------------------------------------------------------|
|-11h12h13h14----12h14h15h16----12h13h14h15---------------------------14--12-11---|
|---------------------------------------------13h15p13-12---15-13-----------------|
|---------------------------------------------------------------------------------|
|---------------------------------------------------------------------------------|
|---------------------------------------------------------------------------------|

2:54
|-----------------------------------------------------------------------------|
|----------------------------------------11-----------------------------------|
|-13---12---13--\10---13---12---13------------11---11------11-------------11--|
|----------------------------------11--------------11---11----11-11-10-11-----|
|-----------------------------------------------------------------------------|
|-----------------------------------------------------------------------------|

|-----------------------------------------------------------------------------------|
|------------------------------------------11--10------------------11--11-10---11---|
|-13-13-12---13__\6---10-10-9---10----------------13--12-11---10--------------------|
|------------------------------------11---------------------------------------------|
|-----------------------------------------------------------------------------------|
|-----------------------------------------------------------------------------------|


|-----------------------------------------------------------------------------|
|-------------------------______----------------------------------------------|
|-11-11------11-11------11h13p11------11------10-10p9---8---7---6---4--5-6----|
|-------13---------13------------13-------------------------------------------|
|-----------------------------------------------------------------------------|
|-----------------------------------------------------------------------------|


2:56 "trombone" guitar
|------------------------------------------------------------------------------|
|------------------------------------------------------------------------------|
|------------------------------------------------------------------------------|
|------------8_/9--5/_6--7_/8-------678-----------9_\8--6_\4---4-4-3-----------|
|--------------------------------9--------7_/8-------------------------6---4---|
|-6___/9-----------------------------------------------------------------------|

|-----------------------------------------------------------------|
|-----------------------------------------------------------------|
|-----------------------------------------------------------------|
|---------2-2-2-2-1-------------------------678-------------------|
|-----------------------5__\4--5--6--8--9-------------------------|
|-2-2-2-2---------------------------------------------------------|
...

3:15
|----------14-------11-14-|-18p17-18---16-18p16--14-------------------------------|
|-------16-------13-------|----------------------------11-12-13-14---14-13-12-11--|
|----16-------14----------|-----------(13)-------------11-13-14-15---15-14-13-11--|
|-16----------------------|-11-11-10-8-9---7___/8---------------------------------|
|-------------------------|--------------------------------------9----------------|
|-------------------------|---------------------------8/9-----------8/9-------2---|

_________________________________________________
[Vous devez être inscrit et connecté pour voir cette image]
Revenir en haut Aller en bas
simbaud
Administrateur de Queenland
simbaud

Messages : 2811
Date d'inscription : 08/06/2013
Age : 23
Localisation : Queenland (rires)

Les tablatures de A Night At The Opera Empty
MessageSujet: Re: Les tablatures de A Night At The Opera   Les tablatures de A Night At The Opera EmptyMar 24 Juin - 10:10

Bohemian Rhapsody

Arranged for classical guitar.


Transposed down by a half step.

Intro:
9/8:
* * * *
|-5-5-5-5---5-----5-5-5-5--22-------4-4-4-5---4-------5-5-5-5-0-0-------|
|-5-5-5-5---5-----4-4-5-4--20-------3-3-3-3---3-------5-5-7-5-3-2-------|
|-6-6-6-6---6-----4-4-6-4--22-------4-4-4-4---4-------6-6-7-6-4-2-------|
|-4-4-4-4---4-----4-4-4-4--21-------2-2-2-4---2---2-2---------6-2-------|
|-----------------------------------------------------0-----------------|
|-----------------------------------------------------------------------|

4/4:
* . . . * . . . * . . .
|-0-0-0-0---------------0---------5-----5----10----10-|
|-2-2-2-2-------2-2-2-3---------7-7---7---12----10----|
|-2-2-2-2-----2---2---------2-----7-7-----12----11----|
|-4-4-4-4---------5-----5---------0-------------------|
|-----------------0-----0-----------------------------|
|-----------2-----------------------------------------|

* . . . * . . . * . . . * . . .
|-------------9-\--0-0-2-0-----0-0-2-6-6-5---4-4-5---6-6-5---4-4-5---|
|-7-7-7-7---7-10\--3--------30-0-2-3-8-8-7---6-6-7---8-8-7---6-6-7---|
|-7-----7---7------1-----1-------0-2-8-8-7---6-6-7---8-8-7---6-6-7---|
|-9-----9----------------------4-------------------------------------|
|--------------------------------------------------------------------|
|-7----------------0-------------------------------------------------|
(an extra 1/8 beat is added to the second measure)

* . . . * . . . * . . .
|-2-2-2-2-----5---5-------4-------4-------7-------|
|-3---3---5---5---4-4-4-4-5-----0-0-----5-5-------|
|-2-------2-------5---5---7---7---7---7---7-------|
|-0-------2-------4---------------------------6h7-|
|---------4-4---4-----------7-----7---------------|
|-------------------------0---------0-------------|


pre-Verse
* . . . * . . .
|---------2---0-----------2---0---|
|-2-----2---------2-----2---------|
|-2---2-----------2---2-----------|
|-2-2-------2---2---2-------2---2-|
|-0---------------0---------------|
|---------------------------------|
You can play right hand harmonics on those high notes.
Also during the verses as many times as possible.


Verse:
* . . . * . . . * . . . * . . .
|---------2---0-----------4---2------------9---7-------------------7-|
|-22----2------------22---------22------------------7------------5---|
|-----2---------2-4-----2---------7-9-7-------------7-9-7----4-7-----|
|---2-------2-------4-------4-----9-----11-9---9-11-------11---6-----|
|-0------------------------------------------------------------------|
|-----------------2---------------7----------7------7--------0-------|

* . . . * . . . * . . . * . . .
|---------2-----0-4--22---4---2-2-5-5-5-5-5-----------------2---2-|
|-22----2-----2---2-----------------0---7---7---7-7-----7-3---3---|
|-----2-----------2-------------------7---7---76--4-4-7---0-------|
|---2-------2-------4---4---4---4-----------------6-----------4---|
|-0-------------------------------------------0-------------------|
|-----------------2---------------7-------6-------4-------3---2---|

* . . . * . . . * . . . \* . . .
|-22------2-----232-----2-/9---7-----------3---3-----0-0-2-233-3-35|
|-3---3---3---5---3---3---/7-----7-8--77-5-5---5-------2---2-------|
|-2---2---2---2---4-4-----/7---------9-------7---622---2---2-------|
|-0-0---0---0-2------------9-9---9---------0-------2---------------|
|-------------4---2----------------7---7-6-----4---0---0---0---0---|
|------------------------------------------------------------------|


* . . . * . . . * . * . . .
|-3-2---025-----02----------------------2----10----10----10---10-|
|-3-------5---5---3-----3---------3---3---12----10-----9----8----|
|-2-------6-6-----4---4---3-5-3-5-3-2-----12----11----10----9----|
|-0---0-----------4-4-----5-------0------------------------------|
|---------4-------2-------5--------------------------------------|
|-------------------------3--------------------------------------|


pre-Verse
* . . . * . . .
|---------2---0-----------2---0---|
|-2-----2---------2-----2---------|
|-2---2-----------2---2-----------|
|-2-2-------2---2---2-------2---2-|
|-0---------------0---------------|
|---------------------------------|



2nd Verse
* . . . * . . . * . . . * . . .
|---------2---0-----------4---2------------9---7-------------------7-|
|-2-2---2-----------2-2---------2-------------------7------------5---|
|-----2---------2-4---2-----------7-9-7-------------7-9-7----4-7-----|
|---2-------2-----4-----4---4-----9-----11-9---9-11-------11---6-----|
|-0------------------------------------------------------------------|
|-----------------2---------------7----------7------7--------0-------|

* . . . * . . . * . . . * . . .
|---------2-----0-4--22---4---2-0-5-5-5-5-5-----------------2---2-|
|-2-2---0-02--2---2--------------7--0---7---7---7-7-----7-3---3---|
|-----2--2--------2-------------------7---7---76--4-4-7---0-------|
|---2-------2-------4---4---4---------------------6-----------4---|
|-0-------------------------------------------0-------------------|
|-----------------2---------------7-------6-------4-------3---2---|

* . . . * . . . * . . . \* . . .
|-22------2-----232-----2-/9---7-----------3---3-----0-0-2-233-3-35|
|-3---3---3---5---3---3---/7-------8--77-5-5---5-------2---2-------|
|-2---2---2---2---4-4-----/7-------9-----4---7---622---2---2-------|
|-0-0---0---0-2------------9-9---9-9-------0-------2---------------|
|-------------4---2----------------7---7-6-----4---0---0---0---0---|
|------------------------------------------------------------------|


Solo:
(tabbed with less dense timing)
* . . . * . . .
|-3-------2---0---5-----------2---7---------------7---9-10-7--------|
|---------------3---------2-------7-----------7---7--------7--------|
|-----2---------------2-----------7-------7-------7---------------7-|
|-0-----------------------------------9--------------------9---11---|
|-----------------4-------------------------------------------------|
|---------------------------------7---------------7--------7--------|
the middle of the solo is transposed down.

* . . . * ._3__ __3__ ._3__ __3__ .
|-0---------------0-2-3-5-7-------5---3---2-3-2~---2----------------------------|
|-0-----------0-------------------2--------------5---5-3-2-3-2~----2------------|
|-0--------------------------------------------------------------4---4-2-2------|
|---------2---1---0---------------2---------------------------------------------|
|-------------------------4-------0--------------0-----------0-----------0------|
|-0-----------------------------------------------------------------------------|
~ : trill-ornament (p-h)
The rhythm is just approximately transcribed.


* . * .
|-2--------------2-3-5----------------2-3-5-7-------------------------------|
|-3--------2-3-5----------------2-3-5-------7-----------2-3-----2-3-----2-3-|
|-2--2--4-----------------2--4--------------7---------------4-------4-------|
|-0---------------------------------------------------------4-------4-------|
|----------------------4------------------------------------2-------2-0-----|
|-------------------------------------------7-------3-2-1-2-------------2-0-|

* . . . * .__3___ . . *
|-0-------0---2---3-------12-----------8-8----8--8--8-----------------4
|-0-------0---0---0--------0-------8---8-8----------------------------4
|-0-------0---0---0--------0-------9------------------------5--h6p5---5
|-2-------2---1---0---------------10--------------------------------8-6
|---------------------------------------------------------------------6
|--------------------------9-------8----------8--7--6-------5---------4



"Opera" section:
(double time feel)
* . . . * . . .
|-4-----------------------------|
|-4---4---4---4---4---4---4---4-|
|-5---5---5---5---5---5---5---5-|
|-6---6---6---6---6---6---6---6-|
|-6-----------------------------|
|-4-----------------------------|

* . . . * . . . * . . . * . . .
|--------------------------------------------------------------------|
|-6---4-4-3---4---6---4-4-3---4-4--9---4-4--9---4-4-3-3-4----9---4---|
|-6---5-5-4-4-5-5-6-6-5-5-4---5-5-10---5-5-10---5-5-4-4-5---10---5---|
|-6---6-6-6---6---6---6-6-6---6-6-11---6-6-11---6-6-6-6-6---11---6---|
|----------------------------------------------------------(11)------|
|--------------------------------------------------------------------|

* . . . * . . . *
|-----------------2-2-2-2---------4
|-5-5-3-5-6---6---4-4-4-4-9---9---4
|-5-5-4-5-4---4---4-4-4-4-7---7---5
|-5-5-5-5-5---5-----------9---9---6
|-------------------------7---7---6
|-3-3-3-3-3---3---2-2-2-2---------4

* . . . * . . . * . . .
|-4---11-11-12-11-------------11-11-12-11-------------11-11-12-11-9-7-6
|-4-------------------------------------------------------------------|
|-5-------------------------------------------------------------------|
|-6-------------------------------------------------------------------|
|-6---------------11-11-12-11-------------11-11-12-11-11-11-12-11-9-7-6
|-4-------------------------------------------------------------------|

* . . . * . * . . . * . . .
|-6---5-5-5---------------6---5---4---5---6---5---4---5---|
|-----------7-------0-----6---5---4---5---6---5---4---5---|
|---------------7---------7---6---5---6---7---6---5---6---|
|---7-----------------7---8---7-7-6---7---8---7-7-6---7---|
|-6-------------------------------------------------------|
|---------------------------------------------------------|

* . . . * . . . * . . . * . . .
|-10---10-10-10---10---10-10-10---10-10-10---7---7-10-5---5---4---4-4-5---------|
|-12---10-10--9---10---12-12-10----9--9-10---8---8-10-3---3---3---3-3-2---10-10-|
|-12---11-11-10---11---12-12-11---10-10-11---0---0----2---2---4---4-4-2---------|
|--0----0-----0----0----0-----0----0-----0---0---0----4---4-2-------------------|
|---------------------------------------------------------------------0---------|
|-------------------------------------------------------------0---0-0-----------|

* . . . * . . . * . . .
|----10----10----10---10-6---5---4---5---6---5---4-------|
|-12----10----9-----8----6---5---4---5---6---5---4-------|
|-12----11----10----9----7---6---5---6---7---6---5-------|
|------------------------8-8-7---6-6-7---8-8-7-7-6---7---|
|----------------------------------------------------0---|
|----------------------------------------------------5---|


. * . . . * . . .
|-----------------------------10-10-10-|
|-----------------5-5-7-8-7-5-10-10-10-|
|---7-------7-----6-6-7-9-7-6-11-11-11-|
7---0---7---0--------------------------|
0---5---0---5-----0-0-0-0-0-0----------|
5-------5------------------------------|

* . . . * . . . * . . . * . . .
|---------------------------10-10-10---------------------------10-10-10-|
|---------------5-5-7-8-7-5-10-10-10---------------5-5-7-8-7-5-10-10-10-|
|---------7-----6-6-7-9-7-6-11-11-11---------7-----6-6-7-9-7-6--7--7--7-|
|-----7---0---7--------------------------7---0---7----------------------|
|-----0---5---0-0-0-0-0-0-0--------------0---5---0-0-0-0-0-0-0----------|
|-----5-------5--------------------------5-------5----------------------|

* . . . * . . . * . . .
|-----------10-10-10-----------------5---------------|
|-5-7-8-7-5-10-10-10-5-7-8-7-5---------6-------------|
|-6-7-9-7-6--7--7--7-6-7-9-7-6-7-7-5-------8---5-----|
|------------------------------------------------7---|
|-0-0-0-0-0----------0-0-0-0-0-----------------------|
|----------------------------------------------------|


* . . . * . . . * . . . * . . .
|-2---3---5---7---6---10--11-------------------5-5-7-5-3-2-0-------|
|-3---5---7---9---5---6------------------------7-7-8-7-5-3-2-------|
|-4---2---7------(6)------12-----------------------0---0-2---------|
|----------------(4)--8------7-7-7-9-7-7-7-9-7-0-0---0-----2---7---|
|-2---0---5------------------------------------------------0---0---|
|-------------9---2---6---11---------------------------------------|
You can strum the chords:
Bm A7 D Db7 Gb7 Bb Eb


. * . . . * . . . * . . . * . . .
|---5-----5-7-----7-4---4---2---2---3-----2-0---3---7-----5-0-------|
|---7-----7-0-----0-6---6---2---2---2-------2-------5-------8---7---|
|---7-----7-0-----0-4---4---2---2---0-------0-------6-------6-------|
7---0-----0---------------------------------------------------------|
0-------------------4---------------0-------0-------0-----------0---|
|-----------3-----3---7-5-4-2---2-----------------------------------|

* *
|17--...-----------------------------|
|14--...-----------------------------|
|-0--...-----------------------------|
|14--...-----------------------------|
|-0--...-----------------------------|
|------------------------------------|
strumm fast


"Rock" section:


* . . . . . * . . . . .
|-2-----2-----2-----2-----2-----2-----2-----2-----|
|-3-----3-----3-----3-----3-----3-----3-----3-----|
|-2-----2-----2-----2-----2-----2-----2-----2-----|
|-0-------------------0---0-----------------------|
|-------------0---2-4-----------------0-2-0-------|
|-----2---3-------------------2---3---------------|
* . . . * . . .


* . . . . . * . . . . .
|-2-----2-----2-----2-----0-----0-----0-----0-----|
|-3-----3-----3-----3-----0-----0-----0-----0-----|
|-2-----2-----2-----2-----1-----1-----1-----1-----|
|-0-------------------0---2-----------------------|
|-------------0---2-4-------------0---2-4-2-------|
|-----2---3-------------------4-------------------|
* . . . * . . .


* . . . . . * . . . . .
|-----3---3---3---2---2---2---0---0---------------|
|-------------2-----------2-----------3---3-3-----|
|-2-----------2-----------2-----------2-----2-----|
|-2-----------------------------------0-----0-----|
|-0-----0-----0-----0-----0-----0-----------------|
|-------------------------------------------------|
* . . . * . . .


* . . * . . . . .
|-------0-----------------------------|
|-2---3-2---------------------1-------|
|-2-----2-----2---0-2p0---------------|
|-2---------------------2-------------|
|-0-----0-----------------3-----------|
|-------------------------------------|
* . * . . .


* . . . . . * . . . . . * . . . . .
|-----3---3---3---2---2---2---0---0---------------3---5-7-----------------|
|-------------2-----------2-----------3---3---3---0-----0-----3-----------|
|-2-----------2-----------2-----------5-----5-----0-----0-----0-----------|
|-2-----------------------------------4-----4-----------------------------|
|-0-----0-----0-----0-----0-----0-----5-----5-----------------------------|
|-------------------------------------------------3---------------3---2---|
* . . . * . . . * . . .


* . . . . . * . . . . .
|-3-----------3-----------2-----0-----------------|
|-0-----------0-----------2-----2-----------------|
|-0-----------0-----------2-----2-----------------|
|-------------------------------------4---2---0---|
|-------------------------0-----0---------------2-|
|-0-----0-----0-----0-----------------------------|
* . . . * . . .


* . . . . . * . . . . .
|-3---3---3---3---3---2---2-----0-----------------|
|-0-----------0-----------2-----2-----------------|
|-0-----------0-----------2-----2-----------------|
|-----------------------------------------2-4p2---|
|-------------------------0-----0----/4---------4-|
|-0-----------0-----------------------------------|
* . . . * . . .


* . . . . . * . . . . .
|-------------------------------------------------|
|-3---3-----3-5-----------3---3---3-3-5-----------|
|-4-----------6-----------4-----------6---7---6---|
|-5-----------7-----------5-----------7-----------|
|-------------0-----------------------0-----------|
|-0-----------------------0-----------------------|
* . . . * . . .


* . . . . . * . . . . .
|-2-----2-----2-----2-----2-----2-----2-----2-----|
|-3-----3-----3-----3-----3-----3-----3-----3-----|
|-2-----2-----2-----2-----2-----2-----2-----2-----|
|-0-------------------0---0-----------------------|
|-------------0---2-4-----------------0-2-0-------|
|-----2---3-------------------2---3---------------|
* . . . * . . .


* . . . . . * . . . . .
|-2-----2-----2-----2-----0-----0-----0-----0-----|
|-3-----3-----3-----3-----0-----0-----0-----0-----|
|-2-----2-----2-----2-----1-----1-----1-----1-----|
|-0-------------------0---2-----------------1-2---|
|-------------0---2-4-------------0---2---4-------|
|-----2---3-------------------4-------------------|
* . . . * . . .

* . . . * *
|-------------------------------------------------------------------------|
|-----1-------0-----0-1---------------1---1-3-4---------------------------|
|---0-2---0-2-0---2---1---------0-1-3---3---------------------------0-2---|
|-3---3-------0-------1---0-1-3---------------------------0-2-3-2-3-------|
|-------------------------1-----------------------2-0-2-3-----------------|
|-------------------------------------------------3-----------------------|

* *
|-----------------------------------------------------------0---|
|---------------------------------------------------0---2-------|
|---------------------0---------------------0---0-2---2---2---2-|
|-----------0-2-0-2-4-------------0-2-0-2-4---4-----------------|
|-4-2-4-2-4---------------2-4-2-4-----------0-------------------|
|-5-------------------------5-----------------------------------|



"Ballad 2":
* . . . * . . . * . . .
|---------5---------------5---------------7-------|
|-3---3/7-7-------2---2/5-5-------3---3/7-7-------|
|-2-2-----7-------2-2-----6-------4-4-----7-------|
|-0---------------2---------------4---------------|
|-----------------0---------------2---------------|
|-------------------------------------------------|

* . . . * . . . * . . .
|-----------------------0---------0-----232-----454
|-2-------3-------2-------3-------2-------3-----676
|-3-------4-------3-------4-------2-------2-------|
|-4-------4-------4-------4---------------0-------|
|-1-------2-------1-------2-------0---------------4
|-----------------------------------3-2-0---------|


tab-timing halved
* . . . * . . . * . . . * . . .
|-4-----4-5---------------2-------3-2-------------2---------------|
|-6---7-6-7-------0-----023-----3-3---3---2-------3-5-3-2---------|
|-----6---6-------0-----022---2---4-------2-2-----4-------2-------|
|---------4-------0---0-----0-----------4-4---------------4-------|
|-4-----------------2-------------2---------------2---------------|
|-----------------3-----------------------2---------------2-------|

* . . . * . . .
|-2-----3---------2-0-0-----------|
|-3-3-5---3-------3-----3-3-------|
|-4-------3-3-----4---------4---6-|
|---------5-------5---------------|
|-2---------------0---------------|
|---------3-----------------------|


Outro:
* . . . * . . . * . . . * . . .
|-5-----5----9----9-5-----5--7-9-7-9-5-----5-5-3-3-2-2-----2-5-3-3-2-|
|-----7---12---12---7---7----9---9---5---5---5-------4---4---4-------|
|-7-7-----12---12---7-7-----10-------6-6-----5-------4-4-----5-------|
|-0-----------------0------------------------------------------------|
|-----------------------------------(4-------3-------2)--------------|
|--------------------------------------------------------------------|

* . . . * . . . *
|-2-----------0---------------0---0----------|
|-4-4-------------2-2-0-0---------0----------|
|-4---4-2-1-------2-2-1-1-3---2---1----------|
|---------2-2---2---------5---4---2----------|
|-2-------------------------------2----------|
|---------0-----------------------0----------|

_________________________________________________
[Vous devez être inscrit et connecté pour voir cette image]
Revenir en haut Aller en bas
simbaud
Administrateur de Queenland
simbaud

Messages : 2811
Date d'inscription : 08/06/2013
Age : 23
Localisation : Queenland (rires)

Les tablatures de A Night At The Opera Empty
MessageSujet: Re: Les tablatures de A Night At The Opera   Les tablatures de A Night At The Opera EmptyMar 24 Juin - 10:11

God Save The Queen


A lot of guitars arranged for less (1-2-3) guitars.

middle
|-------------2-----3-5---7---7---8---7-----5-----5---3---2---3----|
|-8---8--10---3-----2-3---8---8---8---8-----7-8---5---3---1---3----|
|-7---9---9---2-----2-2---7---9---9---7-----5-9---5---4---2---4----|
|-9---9--10---0-----2-4-----------------------9-------0---0--------|
|10---7------------------10---7-------5-----6-7---3----------------|
|---------8-----------------------8---------------------------3----|

guitars on left
|-3-----5-----7------8----|-10--10--10--10----8--7--|
|-8-----7-----8------7----|-12--12--12--12---10--8--|
|-7-----7-----7------7----|-12--12--11--12---11-12--|
|-------------------------|-12--12--12--12---12-12--|
|-5-----3-----2------0----|-------------------------|
|-------------------------|-3----7--10--15----7--3--|
|guitars on right | |
|-101214121415141517151719|19---19------19___...----|
|-121315131517151719171920|20---20------20___...----|
|-121416141617161719171921|19---19------19___...----|
|-------------------------|-------------------------|
|-------------------------|-------------------------|
|-------------------------|-------------------------|
|distorted bass (middle) |
|-------------------------|
|--------------5----------|
|------2---5--------5-----|
|-3--------------------3--|

|-8-------8-----8---8------7----5----|
|-7-------7-----7---7------8----7----|
|-7-------7-----7---7------7----7----|
|------------------------------------|
|-5-------9----12---5-----10----5----|
|------------------------------------|
| |
|-19b20--b20--b20--b20----r19--17-15-|
|-20b22--b22--b22--b22----r20--19-17-|
|-21b23--b23--b23--b23-----21--19-17-|
|------------------------------------|
|------------------------------------|
|------------------------------------|
| |
|------------------------------------|
|----------4---7-------------5-------|
|--5----------------5-----------5----|
|------------------------------------|


|-7-----8--7--5--3--7-----8---10--|-12\8--7--5----|
|-8-----7--8-10--8--8----10---12--|-13\10-8--8-7--|
|-7-----7--7--7--6--7----11---10--|-12___-7--7----|
|------------------------12---12--|---------------|
|-10---12-10--9--7--5-3-2-0-------|-3-----5--5----|
|-----------------------------3---|---------------|
| | |
|-19---20-19-17-15-19----20--22---|-24\20-19-17---|
|-20---19-20-22-20-20----22--24---|-25\22-20-19---|
|-19---19-19-19-18-19----19--24---|-24___-19-19---|
|---------------------------------|---------------|
|---------------------------------|---------------|
|---------------------------------|---------------|
| | |
|---------------------------------|---------------|
|--5----7--5--4--2--0-------------|---------------|
|---------------------3-2-0-------|--3-----5--5---|
|-----------------------------3---|---------------|

guitars (middle)
|--------------------|--------------------------|
|-8--7---5---3-5-3hp-|--------------------------|
|-9--7---5---4-5-4hp-|-4--2-0hp-----------------|
|-10-10\-5__________\|-5--5-----4--2-/4--5__...-|
|--------------------|-5--5-3________/5--5__...-|
|--------------------|------3________/5--3__...-|
|left
|-3-----------|
|-5___\3------|
|-5___\4------|
|-------------|
|-------------|
|-------------|
|right
|-15---10h12ph..p10---12_h14ph..p12---14----14/17\15_________________-|
|-17---12h13ph..p12---13_h15ph..p13---15/17\15_\13-12-13-12hp..p10-12-|
|-17---12h13ph..p12---12________h14ph..........p12___________________-|
|---------------------------------------------------------------------|
|---------------------------------------------------------------------|
|---------------------------------------------------------------------|

_________________________________________________
[Vous devez être inscrit et connecté pour voir cette image]
Revenir en haut Aller en bas
Contenu sponsorisé




Les tablatures de A Night At The Opera Empty
MessageSujet: Re: Les tablatures de A Night At The Opera   Les tablatures de A Night At The Opera Empty

Revenir en haut Aller en bas
 
Les tablatures de A Night At The Opera
Revenir en haut 
Page 1 sur 1
 Sujets similaires
-
» Grand Opera Collection hiver 2006
» couches Sweet-Night
» De l'opera au marché
» MATTENE
» red waters

Permission de ce forum:Vous ne pouvez pas répondre aux sujets dans ce forum
Queenland - Le forum :: Queen :: Leurs Albums ... :: A night at the opera-
Sauter vers: