AccueilS'enregistrerConnexionLes tablatures de A Day At The Races Empty

Partagez
 

 Les tablatures de A Day At The Races

Aller en bas 
AuteurMessage
simbaud
Administrateur de Queenland
simbaud

Messages : 2811
Date d'inscription : 08/06/2013
Age : 23
Localisation : Queenland (rires)

Les tablatures de A Day At The Races Empty
MessageSujet: Les tablatures de A Day At The Races   Les tablatures de A Day At The Races EmptySam 6 Déc - 17:04


Tie Your Mother Down


riff A
|-------------|------|-3-----2---------------|-------| 0///
|-------------|------|-3-----3-----1---------|-------| ///0 : repeat last
|(2)--2-----2-|--0/--|-0-----2-----0-----0---|-0///--| three bars
|-2--(2)---(2)|--/0--|-0-----0-----2-----0---|-///0--|
|-0-----3p0(0)|------|-------------3-----2---|-------|
|-------------|- 5X -|-----------------------|- 4X --|

riff B
|--------------------------------------------------|
|--------------------------------------------------|
|--------------------------------------------------|
|--9--------9-11--9----9-11--9-----9-11--9---9-11--|
|2/7--------7-7---7----7-7---7-----7-7---7---7-7---|
|--------------------------------------------------|
riff C
|------------------------|
|------------------------|
|------------------------|
|-9---1212--1212--1212\--|
|-7---1010--1010--1010\--|
|------------------------|

riff D
|-------------|------|-------------------------------------|
|-------------|------|-------------------------------------|
|(2)--2-----2-|--0/--|-2-----------------------------------|
|-2--(2)---(2)|--/0--|-2-----------2-----2-----------------|
|-0-----3p0(0)|------|-0---10\-----0-----2-----3-----4-----|
|-------------|- 4X -|-------------------------------------|

riff E
|------------------------------------------------|
|------------------------------------------------|
|-2---2-4-----2---2-4-----2--2-4---4-2---2-4---2-|
|-0---0-0-x-x-0---0-0-----0--0-0---0-0---0-0---0-|
|------------------------------------------------|
|------------------------------------------------|
riff F
|------------------------------------------------|
|------------------------------------------------|
|-------2---2-0---0-2------------2-----2---2-2---|
|-2-----2---2-0---0-0------------2-----2---2-2---|
|-0---0-----------------3b-0---0-----0-----0-0---|
|------------------------------------------------|

|------------------------|----|
|------------------------|----|
|-2-2---2-4-----2---2-2--|-0/-|
|-0-0---0-0-----0---0-0--|-/0-|
|------------------------|----|
|------------------------|----|

G D C G

riff A (with % 5X, % 2X)
riff B
riff C
riff D (with % 1X )
riff E
riff F
riff E
G D C G
riff A (with % 5x, - )
G D C G


solo
|---------------------------------------------------------|
|-7b8---------------7-7b8---------------7-7b8---7-7b8-----|
|-7b9---------------7-7b9---------------7-7b9---7-7b9-----|
|---------------------------------------------------------|
|---------------------------------------------------------|
|---------------------------------------------------------|

G D C G

|------------------------------------------|
|-b8r7-5-7---5-----------b8r7-5-7---7b9----|
|-b9r7-5-7---5-----------b9r7-5-7---7b8----|
|-----------------7-5---7------------------|
|------------------------------------------|
|------------------------------------------|

|-------------------------------------|
|-8r7-5-7--5--------------------------|
|-9r7-5-7--5--------------------------|
|--------------7-5--------------------|
|------------------7-5-3-5-3---3/10\--|
|----------------------------5--------|
"slide on"
|------------------------------------->>>>>>>>---|
|------------------------------------->>>>>>>>---|
|-9---7-7-----9----------------------->>>>>>>>---|
|-9---7-7-----9-------12---14----9---->>>>>>>>---|
|-7---5-5---0-7-------10---12----7---->>>>>>>>---|
|------------------------------------->>>>>>>>---|

|------------------------------------|
|/14--14--14--14\--/14--14--14--14\--|
|/14--14--14--14\--/14--14--14--14\--|
|/14--14--14--14\--/14--14--14--14\--|
|------------------------------------|
|------------------------------------|
| | | | | | | | | | | | | |
|------17---/15------------------------------------------------------|
|-15/17----------15-14\-12/14----------------------------------------|
|-----------------------------14----12-------------------------------|
|--------------------------------------14\12----10/12----------------|
|-----------------------------------------------------12----12\10----|
|--------------------------------------------------------------------|

|-------------------------------------|
|/14--14--14--14\---/14--14--14--14-\-|
|/14--14--14--14\---/14--14--14--14-\-|
|/14--14--14--14\---/14--14--14--14-\-|
|-------------------------------------|
|-------------------------------------|

. . . . . :pick
|--------------------------------------------|
|----14\12/-14\12-/14\12-/14\12--/14-12/14---|
|----14\12/-14\12-/14\12-/14\12--/14-12/14---|
|-12-14\12/-14\12-/14\12-/14\12--/14-12/14---|
|--------------------------------------------|
|--------------------------------------------|

E G A E G

|--------------------------------------------|
|--/14---\\--/14--14--\\-//17--17-/17-/17\---|
|--/14---\\--/14--14--\\-//17--17-/17-/17\---|
|--/14---\\--/14--14--\\-//17--17-/17-/17\---|
|--------------------------------------------|
|--------------------------------------------|

"slide off"
|----->>>>>>>>>---|
|----->>>>>>>>>---|
|-2--->>>>>>>>>---|
|-0--->>>>>>>>>---|
|----->>>>>>>>>---|
|----->>>>>>>>>---|


riff E

G D C G

riff A (with % 5X, - )
| | | | | | | | | | | | | | | | | | | | | | | | | | | | | | | | | | |
|-----------------------------------------------------------------------|
|-----------4-5-----4---5-2---4-5---2-4---5-7---4-5-----4---5-7---4-5---|
|-----------4-5-----4---5-2---4-5---2-4---5-7---4-5-----4---5-7---4-5---|
|-2---------4-5-----4---5-2---4-5---2-4---5-7---4-5-----4---5-7---4-5---|
|-0-----------------------------------------0---------------------------|
|-----------------------------------------------------------------------|

G D C G

|-----------------------------------------------------------------------|
|-----4-5---2-4---5-7-----5-----7-----0-----2-----5-----7---------------|
|-2---4-5---2-4---5-7-----5-----7-----0-----2-----5-----7---------------|
|-2---4-5---2-4---5-7-----5-----7-----0-----2-----5-----7---5---5-7-5---|
|-0-------------------------------------------------------------------7-|
|-----------------------------------------------------------------------|

G D C G

riff A (with % 5X, - )

D
A

end

solo for the studio version
|-----------------------------------------------------------|
|-5b----------------------------------------------8b10--8v--|
|-5b--------------7--5b6r5--------------7--6-b6r5-----------|
|-------7--7----5-------------7--7----5---------------------|
|-----------------------------------------------------------|
|-----------------------------------------------------------|

|---------------------------------------------------------------------|
|-5-------------------------------------------------------------------|
|---8-7-5--7p5--------------------------------------------------------|
|--------------7p5----------------------------------------------------|
|------------------7-6-5-3p0h3vvvp0-5p3p0h3v---5p3p0h3v---5p3p0h3v----|
|---------------------------------------------------------------------|

|--------------------------------------------------------|
|--------------------------------------------------------|
|-----------------------------------------------5--------|
|---------------------------------------5---5-7----------|
|-5p0-0-5p0-3p0-5p0-3p0-5p0-3p0-5p0-5-7---7--------7vv---|
|--------------------------------------------------------|

|--------------------------------------------------------|
|--------------------------------------------------------|
|-(0)----------------------------11b13__r11p9-11--9----9-|
|-(0)-5--0-7--5b------------9-9---------------------11---|
|----------------7vv-\/11--------------------------------|
|--------------------------------------------------------|

|----------------------------|
|-12b14_12b13_rp10-12----10--|
|----------------------------|
|----------------------------|
|----------------------------|
|----------------------------|

slide on
|----------------------------------------|
|-----14---14-14_\-------14-14---14-14---|
|-----14---14-14_\-------14-14---14------|
|-/14-14---14-14_\5/14---14-14---14------|
|----------------------------------------|
|----------------------------------------|

|-14-------17-------17\15-----------------------------------------|
|----16/17-------17---------17_\15---15\13---13/14----------------|
|---------------------------------------------------14---14\12----|
|--------------------------------------------------------------12-|
|-----------------------------------------------------------------|
|-----------------------------------------------------------------|

|------------------------------------------|
|-13/14---14-14---14--------------------14-|
|-13/14---14-14---14--------------------14-|
|-13/14---14-14---14-14\2---2/14---14---14-|
|------------------------------------------|
|------------------------------------------|

|-------14-------------------------------------------|
|-14\10/--\12/_14\-12---14-12/_14-12/14------14\-----|
|--------------14-------14-12/_14-12/14------14\-----|
|-----------------------------------------14---\-----|
|----------------------------------------------------|
|-------------------------------------------------0--|


_________________________________________________
[Vous devez être inscrit et connecté pour voir cette image]
Revenir en haut Aller en bas
simbaud
Administrateur de Queenland
simbaud

Messages : 2811
Date d'inscription : 08/06/2013
Age : 23
Localisation : Queenland (rires)

Les tablatures de A Day At The Races Empty
MessageSujet: Re: Les tablatures de A Day At The Races   Les tablatures de A Day At The Races EmptySam 6 Déc - 17:06


You Take My Breath Away


piano accompaniment arranged for fingerpicking/classical guitar.

Two versions. The first one is in the original key and very hard
to play. The second one is transposed down by one halfstep and easier
to play. For this latter you can use a capo to keep the original key.

Version 1 (c-minor)

pre-intro
|------------------------------------------|
|-11-----------------11---8----11----11----|
|-8------------------8---------8-----8-----|
|-10-10------10---10-10-----10----10----10-|
|------------------------------------------|
|-8------------------8--8------------------|

"intro figure":
|------------------8------------------8-----11-10----8-----|
|-8------8-9----------------8-9---------8---------11---8---|
|------8--------10---8----8--------10-----8--------------8-|
|---10-------12--------10-------12-------------------------|
|----------------------------------------------------------|
|-8------------------8-------------------------------------|

repeat intro figure ((with more busy bass))


Verse
|---------------8-----------------11----|
|-8----8----6---6---8---8---9------9----|
|-8----8----7-7-7-7-8-8-8-8-10-10-10----|
|---10---10-----------------------------|
|---------------------------------------|
|-8---------8-------8-------8-----------|

repeat intro figure

|-------4---------|----|-------4-----11---11---|
|-6---6---8---8---|----|-6---6---8---11---11---|
|-7-7-----8-8---8-|-0/-|---7-----8-8----8------|
|-----------------|-/0-|-----------------------|
|-----------------|----|---------6-------------|
|-7-------8-------|----|-6---------------------|

|-----------------------------------------------------------------|
|-4---4---4---4---6---6---6---6-4-------4-4---4-1-------1-4---6---|
|-5---5---5---5---7---7---7---7-3-----3---3---3-2-----2---2-------|
|---6---6---6---6---6---6---6---5---5-----5---5-4---4-----4-------|
|-----------------------------------------------------------------|
|-6---------------6---------------3---------3-----2---------2-----|

|--------------------------|
|-4-----1-----------4------|
|-1-----1-----1-----1------|
|-3-----3------------------|
|--------------------------|
|-1-1-1---1-1---1-1--------|

repeat Intro figure


2nd Verse
|-8----8-8-8---8-8-----8---------11----|
|-8----8-8-6---6-6-8---8---9------9----|
|-8----8-8-7-7-7-7-8-8-8-8-10-10----10-|
|---10---------------------------------|
|--------------------------------------|
|-8--------8-------8-------8-----------|

repeat intro figure

|-------4---------|----|-------4-----6---11---|
|-6---6---8---8---|----|-6---6---8-----8-11---|
|-7-7-----8-8---8-|-0/-|---7-----8-8----------|
|-----------------|-/0-|----------------------|
|-----------------|----|---------6------------|
|-7-------8-------|----|-6--------------------|


|-----------------------------------------------------------------|
|-4---4---4---4-6-----6---6---6---4-----4-4---4-4-------1-4---6---|
|-5---5---5---5-7-----7---7---7---3---3---3-----------2---2-------|
|---6---6---6---6---6---6---6---6---5-----5---------4-----4-----4-|
|-----------------------------------------------------------------|
|-6---------------6---------------3---------3-----2---------2-----|
* * * *
Tab omits Bb notes (D-Cool at the marked (*) points.
(Also in the variant phrases.)

|----------------------------|
|-4-----4-----4---4------4---|
|-1-----1-----1---1------1---|
|-3-3-3-3---3-3-3-3------3---|
|----------------------------|
|-1--------------------------|

repeat intro figure


Bridge
|-------------------------------------------------|
|---------4---6-----------4---6-----------4---6---|
|-7-----7-5---7---7---7---5---7-------7---5---7---|
|-8---8-----6---6-8---8-----6---6-----8-----6---6-|
|---8---------------8---8-----------8---8---------|
|-6------(6)------6------(6)------6---------------|

|-----6---11------------11---6---11---|
|-----8---11---8--------11---8---11---|
|---8---8----8---8----8----8---8----8-|
|-------------------------------------|
|-6-----------------6-----------------|
|-------------------------------------|

|-----4-----------0-------0---0--------------------1-------1-------|
|-4---4---4---4---------1-1---1----4-----1-4---4---3-----3---3-----|
|-5---5---5---5-----0h3---3---3----1---1---5---5---4-1h4---1---4p1-|
|---6---6---6---6-----------5---5----3-----6---6-------------------|
|-----------------3------------------------------------------------|
|-4------------------------(3---3)-1---------3---4-----------------|

|---------------------------------|
|-4-----4-4---6-4-------1-4---4---|
|-3---3---3-----3-----2---2-------|
|---5---5-5---5-----4-------4---4-|
|---------------------------------|
|-3---------3-----2---------------|

|-------------------------|
|-4-----1-------------4---|
|-1-----------1-------5---|
|---3-3---3-3---3-3---6---|
|---------------------8---|
|-1-----------------------|

repeat intro figure

Solo
|-8-----8--8-8---8-------8--(13)13-11----|
|-8-----8--8-6---6---8---8---9------9----|
|-8-----8--8-7-7-7-7-8-8-8-8-10-------10-|
|---10-10-10-----------------------------|
|----------------------------------------|
|-8----------8-------8-------8-----------|

|-------8--8-8---8-------8--(13)13-11----|
|-8-----8--8-6---6---8---8---9------9----|
|-8-----8--8-7-7-7-7-8-8-8-8-10-------10-|
|---10-----------------------------------|
|----------------------------------------|
|-8----------8-------8-------8-----------|

|-------------------------------------------------|
|---------4---6-----------4---6-----------4---6---|
|-7---7---5---7---7---7---5---7---7---7---5---7---|
|-8---8-----6---6-8---8-----6---6-8---8-----6---6-|
|---8---8-----------8---8-----------8---8---------|
|-6------(6)------6------(6)------6---------------|

|-----6---11-6----------6---11-6-----|
|-8---8--------8---8----8--------8---|
|---8---8-8------8---8----8-8------8-|
|------------------------------------|
|-6----------------6-----------------|
|------------------------------------|

2nd Bridge (second half)
|-----------------0-0-0-0---0-0-------------------1-...-|
|-4-4-4-4---4-----1-1-1-1---1-1---4-------4---4---3-...-|
|-5-5-5-5---5-----3-3-3-3---3-3---1---1---5---5---4-...-|
|-6-6-6-6---6---6-----------------3-3---3-6---6---------|
|-----------------3-------3-----------------------------|
|-4-------4---4-------------------1---------3---4---...-|

|---------------------------------|
|-4-----4-4-6---4---------4---4---|
|-3---3---3-3---2-----2-5-----2---|
|---5---5-5-5-------4-------4-----|
|---------------------------------|
|-3-----------3---2---------------|

|------------------------|
|-4-----1------------4---|
|-1-----1-----1------5---|
|-3-----3------------6---|
|--------------------8---|
|-1-1-1------------------|

repeat intro figure

Tr: PD april 2002

Note: At several places the use of your thumb (left hand) may
result in an easier play.

The "intro figure" you can play like this:

|-----------------8-...|
|-8------8-9-----------|
|------8-----7-10------|
|---10-----------------|
|----------------------|
|-8--------------------|


Note the pre-downbeat emphasyses, and the tempo changes which you have
to learn from the record.
Most of this tab was transcribed using the piano-only version availbale
on "The Eye". It's more or less accurate, tad simplified. You
can simplify it further. I admit I had to "bluff" much in the
last (half-)Bridge (omitted in the Eye-version).

----------------------------------------------------------------------

Version 2 (b-minor)

pre-intro
|-----------------------------------|
|-10-------------10---7---10---10---|
|-7--------------7--------7----8----|
|-9--9-----9---9-9------9----9----9-|
|-----------------------------------|
|-7--------------7--7---------------|

"intro figure": (played with barre)
|-----------------7----------------7-----10-9----7-----|
|-7-----7-8---------------7-8--------7--------10---7---|
|-----7--------9----7---7--------9-----7-------------7-|
|---9-------11--------9-------11-----------------------|
|------------------------------------------------------|
|-7-----------------7----------------------------------|

repeat intro figure


Verse
|-------------7---------------10---|
|-7---7---5---5---7---7---8---8----|
|-7---7---6-6-6-6-7-7-7-7-9-9-9----|
|---9---9--------------------------|
|----------------------------------|
|-7-------7-------7-------7--------|

repeat intro figure

|-------3---------|----|-------3-----10---10---|
|-5---5---7---7---|----|-5---5---7---10---10---|
|-6-6-----7-7---7-|-0/-|---6-----7-7----7------|
|-----------------|-/0-|---------0-------------|
|-----------------|----|-0---------------------|
|-6-------7-------|----|-----------------------|
pinky barre

|-----------------0---0---0---0-------------------------------0---|
|-3---3---3---3---2---2---2---2-3-------3-3---3-0-------0-3-------|
|-4---4---4---4---2-0-2-0-2-0-2-2-----2---2---2-1-----1---1-------|
|---5---5---5---5---------------4---4-----4---4-3---3-----3-------|
|-0---------------0-----------------------------------------------|
|---------------------------------2---------2-----1---------1-----|
^ Thumb ^
(Also in the variant phrases)


|--------------------------|
|-3-----0-----------3------|
|-0-----0-----0-----0------|
|-2-----2------------------|
|--------------------------|
|-0-0-0---0-0---0-0--------|

repeat Intro figure


2nd Verse
|-7---7-7-7---7-7-----7-------10---|
|-7---7-7-5---5-5-7---7---8---8----|
|-7---7-7-6-6-6-6-7-7-7-7-9-9----9-|
|---9------------------------------|
|----------------------------------|
|-7-------7-------7-------7--------|

repeat intro figure

|-------3---------|----|-------3-----------10---|
|-5---5---7---7---|----|-5---5---7---10----10---|
|-6-6-----7-7---7-|-0/-|---6-----7-7(/)-11------|
|-----------------|-/0-|---------0--------------|
|-----------------|----|-0----------------------|
|-6-------7-------|----|------------------------|


|---------------0-----0---0---0-------------------------------0---|
|-3---3---3---3-2-----2---2---2---3-----3-3---3-3-------0-3-------|
|-4---4---4---4-0---0-2-0-2-0-2-0-2---2---2-----------1---1-------|
|---5---5---5-----------------------4-----4---------3-----3-----3-|
|-0---------------0-----------------------------------------------|
|---------------------------------2---------2-----1---------1-----|

|----------------------------|
|-3-----3-----3---3------3---|
|-0-----0-----0---0------0---|
|-2-2-2-2---2-2-2-2------2---|
|----------------------------|
|-0--------------------------|

repeat intro figure


Bridge
|-------------0---------------0---------------0---|
|-2-----2-3---2---2---2---3---2-------2---3---2---|
|-2---2---4-----0-2---2---4-----0-----2---4-----0-|
|---2-------5-------2---2---5-------2---2---5-----|
|-0------(0)------0------(0)------0---------------|
|-------------------------------------------------|

|-----5---10-----------10---5---10---|
|-----7---10---7-------10---7---10---|
|---7---7----7---7---7----7---7----7-|
|-0----------------0-----------------|
|------------------------------------|
|------------------------------------|
when doing the pinky barre it's easier if you release your
middle finger from the B-string.

|-----3--------------------------------------------0-------0-------|
|-3---3---3---3---4-----0-0---0----3-----0-3---3---2-----2---2-----|
|-4---4---4---4-------2---8---8----0---0---4---4---3-0h3---0---3p0-|
|---5---5---5---5-4-4-----7---7------2-----5---5-------------------|
|-----------------2---------9---9----------------------------------|
|-3--------------------------------0---------2---3-----------------|

|---------------------------------|
|-3-----3-3---5-3-------0-3---3---|
|-2---2---2-----1-----1---1-------|
|---4---4-4---4-----3-------3---3-|
|---------------------------------|
|-2---------2-----1---------------|

|-------------------------|
|-3-----0-------------3---|
|-0-----------0-------4---|
|---2-2---2-2---2-2---5---|
|-------------------------|
|-0-------------------0---|

repeat intro figure

Solo
|-7---7-7-7---7-------7--(12)12-10---|
|-7---7-7-5---5---7---7---8------8---|
|-7---7-7-6-6-6-6-7-7-7-7-9--------9-|
|---9-9-9----------------------------|
|------------------------------------|
|-7-------7-------7-------7----------|

|-----7-7-7---7-------7--(12)12-10---|
|-7---7-7-5---5---7---7---8------8---|
|-7---7-7-6-6-6-6-7-7-7-7-9--------9-|
|---9--------------------------------|
|------------------------------------|
|-7-------7-------7-------7----------|

|-------------0---------------0---------------0---|
|-2---2---3---2---2---2---3---2---2---2---3---2---|
|-2---2---4-----0-2---2---4-----0-2---2---4-----0-|
|---2---2---5-------2---2---5-------2---2---5-----|
|-0------(0)------0------(0)------0---------------|
|-------------------------------------------------|

|-----5---10-5----------5---10-5-----|
|-7---7--------7---7----7--------7---|
|---7---7-7------7---7----7-7------7-|
|-0----------------0-----------------|
|------------------------------------|
|------------------------------------|

2nd Bridge (second half)
|-------------------------------------------------0-...-|
|-3-3-3-3---3-----0-0-0-0---0-0---3-------3---3---2-...-|
|-4-4-4-4---4-----8-8-8-8---8-8---0---0---4---4---3-...-|
|-5-5-5-5---5---5-7-7-7-7---7-7---2-2---2-5---5---------|
|-------------------------------------------------------|
|-3-------3---3---7-------7-------0---------2---3---...-|

|---------------------------------|
|-3-----3-3-5---3-------0-3---3---|
|-2---2---2-2---1-----1-------1---|
|---4---4-4-4-------3-------3-----|
|---------------------------------|
|-2-----------2---1---------------|

|------------------------|
|-3-----0------------3---|
|-0-----0-----0------4---|
|-2-----2------------5---|
|------------------------|
|-0-0-0--------------0---|

repeat intro figure


Advice:
First practice the tricky chord changes:
7x977x > 7xx657
7x977x > 6xx653

_________________________________________________
[Vous devez être inscrit et connecté pour voir cette image]
Revenir en haut Aller en bas
simbaud
Administrateur de Queenland
simbaud

Messages : 2811
Date d'inscription : 08/06/2013
Age : 23
Localisation : Queenland (rires)

Les tablatures de A Day At The Races Empty
MessageSujet: Re: Les tablatures de A Day At The Races   Les tablatures de A Day At The Races EmptySam 6 Déc - 17:12


Long Away


|-----------------------0-----------------7---10-------------|
|-2-2-----3-3-----2-2p--0-------2-0---3---7---10---2-2-------|
|-2-2---2-2-2---2-2-2p--1-------2-1p--2---5-/-11---2-2-------|
|-2-2-----4-4-----2-2p--2---2-2-2-2p--0---0--------2-2-------|
|-0-0-------0-0-0-0-0---2----------p---------------0-0-------|
|-----------------------0------------------------------------|

Intro/B figure:
* . * . * . * . *
|------0-------0-------0----------------0-------0-------0------------------|
|---/5-----3---3---2-------0---------/5-----3---3---2-------0-------2-2...-|
|--------------------2---2-----2-2-2----------------2-----------2---2-2...-|
|------------------------------2-2------------------2-2---2-----2---2-2...-|
|-0------0---0---0---0---0---0---0-0------0---0---0---0---0-----0---0-0...-|
|--------------------------------------------------------------------------|

|-2-----2---------------2---------|
|-0-0-------0-------0-------0-----|
|-2------(0)----2-1---1-----------|
|-0---0-------0-----------0---0---|
|-0-----------------------------0...
|---------------------------------|
| * * |
|-2-----2---------------2---------|
|-0---------0-------0-------0-----|
|-2-2-------------1---------------|
|-0-------------------------------|
|-0-------------------------------|
|---------------------------------|


* . * . *
|------0-------0-------0-------------|
|---/5-----3-------2-----------------|
|--------------------2---2-4---2-2-2-|
|--------------------------2---2-2-2-|
|-0------0-------0-------0---0---0-0-|
|------------------------------------|

repeat two more variants of this (Intro/B)






_________________________________________________
[Vous devez être inscrit et connecté pour voir cette image]
Revenir en haut Aller en bas
simbaud
Administrateur de Queenland
simbaud

Messages : 2811
Date d'inscription : 08/06/2013
Age : 23
Localisation : Queenland (rires)

Les tablatures de A Day At The Races Empty
MessageSujet: Re: Les tablatures de A Day At The Races   Les tablatures de A Day At The Races EmptySam 6 Déc - 17:13


The Millionaire Waltz


This tab contains some licks, Rhytm parts and the Main Solo
In the song the licks are played by several guitars played together, but this is an arrangment
for one guitar

0:45
|------------------------------------------7------5---8~---------|
|--------------3------3-6-------8-------10------8---8------------|
|----------3-5----3-5--------7-9----9-10-------------------------|
|-7-7-7--7-----------------7-------------------------------------|
|----------------------------------------------------------------|
|----------------------------------------------------------------|
1:48
|----------------------------------------------------------------|
|-----------------------5-6---8-10-------8-10-11----13-15--------|
|-13/12/10/5--7-9-5---7------------10---------------------15-----|
|----------------------------------------------------------------|
|----------------------------------------------------------------|
|----------------------------------------------------------------|

2:07
|---------------------------------------------------------------------------------11~-|
|-11--------------------------------------13---13-11-10-11-------------------13-------|
|----------------------10-13--------10-13------------------12----------12-------------|
|----13-10----------12-----------12---------------------------13-12-13----------------|
|----------13-12-13-----------13------------------------------------------------------|
|-------------------------------------------------------------------------------------|
2:21
|----------------------------------------------------------------|
|--11\8\4\1/3/8/4~-----------------------------------------------|
|----------------------------------------------------------------|
|-------------------------0-0-2-2-3---3-2---3-2-1---1------------|
|---------------------3-3-----------------------------4-3--------|
|---------------------------------------------------------4------|

|--------------------------------------------------------------------|
|--------------------------------------------------------------------|
|--------------------------------------------------------------------|
|-6---6-5-3--8------------------------------------------8_-----------|
|-4---4-3-1--6-------4-6------3-4-6------4-6-------3-4--6_--6-4------|
|----------------4-6------4-6--------4-6-------4-6--------------6-4--|

Solo
|-------------------------------------------------------------------|
|-4-3h4-3h4-3h4-3h4/13-13-13---11h13p11--9h11p9--8h9p8--6h8p6-------|
|--------------------------------------------------------------5-6~-|
|-------------------------------------------------------------------|
|-------------------------------------------------------------------|
|-------------------------------------------------------------------|

|----------------------------------------------------------------|
|-2-1h2-1h2-1h2-1h2/11-11-11---11-9-8-6--------------------------|
|---------------------------------------5-6----------------------|
|----------------------------------------------------------------|
|----------------------------------------------------------------|
|----------------------------------------------------------------|

|-------------------------------------------------b13-13------------|
|-4-3h4-3h4-3h4-3h4/13-13-13---14p13----13h16p13----------13-16-14~-|
|------------------------------------16-----------------------------|
|-------------------------------------------------------------------|
|-------------------------------------------------------------------|
|-------------------------------------------------------------------|

|-----------------------------13--11-9-8----------------------------------|
|---------8-6h8-9-8h9-11-9--------------11-9-8----------------------------|
|-10-9h10--------------------------------------10-8-----------------------|
|---------------------------------------------------12-10-----------------|
|---------------------------------------------------------13-11-13-10-----|
|---------------------------------------------------------------------13--|

|-13--11-9-8------------------------|
|------------11-9-8-----------------|
|-------------------10--------------|
|----------------------13-10--------|
|----------------------------13~----|
|-----------------------------------|
3:42
|---------------------------------------------------0-2-3-8~---------|
|--11--11\9\7---3-6-4-4~----------------------0-1-3------------------|
|---------------------------------------2-0-2------------------------|
|-----------------------------2---5-4-5------------------------------|
|--------------------------------------------------------------------|
|--------------------------------------------------------------------|


|------------------------------------------------------17-15------------15-------------------------|
|--------------------------8-10-10~---10-11-13-15--14--------18-17-18-------13-------10-11-13-15~--|
|------------------------------------------------------------------------------10-12---------------|
|--------------------------------------------------------------------------------------------------|
|-7-7-7---7-8-10--7-8-10---------------------------------------------------------------------------|
|--------------------------------------------------------------------------------------------------|

4:37
|--------------------------------------------------------------------|
|-1-1-1-1------------------------------------------------------------|
|---------3-2-3-2-0-2-0---0------------------------------------------|
|-----------------------3---2------------------------------------5_--|
|-----------------------------3-----3-3-3--3-1-0-1-0---0---------3_--|
|----------------------------------------------------3---3-1-3-0-----|

_________________________________________________
[Vous devez être inscrit et connecté pour voir cette image]
Revenir en haut Aller en bas
simbaud
Administrateur de Queenland
simbaud

Messages : 2811
Date d'inscription : 08/06/2013
Age : 23
Localisation : Queenland (rires)

Les tablatures de A Day At The Races Empty
MessageSujet: Re: Les tablatures de A Day At The Races   Les tablatures de A Day At The Races EmptySam 6 Déc - 17:16


You And I


solo
|-----------------------------------------------------------------------|
|-----------------------------------------------------------------------|
|-----------------7-9b11-------------------------------------______-----|
|-----___---7---9---------------------------------7-9b11-----9b10r9---7-|
|-5---7/9-----------------------------___---7---9-----------------------|
|-----------------------------9-9-5---7/9-------------------------------|

|-----------------------------------------------------------------------|
|--------------------------------7-10b12----10-9------------------------|
|--------------------------6/7-9-----------------10-7-------9b11____r9--|
|------------------7---9------------------------------9-6---------------|
|----------7---9--------------------------------------------------------|
|-7---10----------------------------------------------------------------|

|---------7----------------------------------------------------------------|
|-10b12-----10-------------------------------------------------------------|
|--------------9b11---7---------------------------------------------7---9--|
|-------------------------9-7------------------------7__\5----7/9----------|
|-----------------------------8b---5---___---7---9--------5----------------|
|--------------------------------------7/9---------------------------------|

|--------------------------------|
|---------------------------5----|
|-10r9__b11-11r9p7---7___\5-5h6--|
|------------------9-------------|
|--------------------------------|
|--------------------------------|

_________________________________________________
[Vous devez être inscrit et connecté pour voir cette image]
Revenir en haut Aller en bas
simbaud
Administrateur de Queenland
simbaud

Messages : 2811
Date d'inscription : 08/06/2013
Age : 23
Localisation : Queenland (rires)

Les tablatures de A Day At The Races Empty
MessageSujet: Re: Les tablatures de A Day At The Races   Les tablatures de A Day At The Races EmptySam 6 Déc - 17:18


Somebody To Love


guitar solo
-------------------------------------------------------------------------------
-----------------------------------------------16------------------------------
15b17----15b17__rp13h15p13----------13--15b17-----b17__rp13--15--------10/13-13
--------------------------15----13-------------------------------13------------
-------------------------------------------------------------------------------
-------------------------------------------------------------------------------

-------------------------------------------------------------------------------
-------13---------13---------13------------------------------------------------
15b17------15b17------15b17------17r15p13------15b17__rp1315__b17--------------
-----------------------------------------15-----------------------15b_16-15p13v
-------------------------------------------------------------------------------
-------------------------------------------------------------------------------

|-------------------------------------------------------------15-16-18v\--|
|-16b18----16--14--13-14-b16v__r14p13-15-16-b18__r16p14-16-18-------------|
|-------------------------------------------------------------------------|
|-------------------------------------------------------------------------|
|-------------------------------------------------------------------------|
|-------------------------------------------------------------------------|

|------------------------------------------------------------------------|
|--------------------------11-10-9-8-------------------------------------|
|----8--10-12_r10p8-10--8------------10b11rp8--8----------10p8h10p8------|
|-8------------------------------------------10----8h10h11---------6h8p6-|
|------------------------------------------------------------------------|
|------------------------------------------------------------------------|

_________________________________________________
[Vous devez être inscrit et connecté pour voir cette image]
Revenir en haut Aller en bas
simbaud
Administrateur de Queenland
simbaud

Messages : 2811
Date d'inscription : 08/06/2013
Age : 23
Localisation : Queenland (rires)

Les tablatures de A Day At The Races Empty
MessageSujet: Re: Les tablatures de A Day At The Races   Les tablatures de A Day At The Races EmptySam 6 Déc - 17:20


White Man


Drop - D tuning

|-------------------------|----------------------------------------------------|
|----------------------3--|----3-----3---3---3---3----3____---3-------3---3----|
|----------------------2--|----0-----2---2---2p0-2----2__p0---2---2p0-2p0-2----|
|----------------------0--|----3-----0------------------------0---0---0---0----|
|-5p3bp0------------------|----3-----0-----------------------------------------|
D--------3b---0-3b---0----|-0--3-----------------------------------------------|

|---------------------------------------------------------------------------------|
|-3------------------------------------------------------------3--------------3---|
|-2---0---------------------(5)--------------------------------2--------------2---|
|-0---0---5---5---5p3-5------5__p3---5---5---5p3---------------0--------------0---|
|---------3---3---3---3------3-------3---3---3---5-----3---0----------3---0-------|
|------------------------------------------------5-----3---0----------3---0-------|

|---------------------------------------------------------|
|---------3---3---3---3------3---3---1---3-------3---3----|
|---0-----2---2---2p0-2------2---2---0---2---2---2p0-2----|
|---3-----0-x-0-3-0---0------2---3-------0---0---0---0----|
|---3-----------------------------------------------------|
|-0-3-----------------------------------------------------|

|---------------------------------------------------------------------------------|
|-3------------------------------------------------------------3--------------3---|
|-2p0----------5---5---5-----5---5-----------5-----------------2--------------2---|
|-0--------5---5---5p3-5-----5---3---5---5---5p3-5-------------0--------------0---|
|----------3---3-------3---------3---3---3---3---5-----3---0----------3---0-------|
|------------------------------------------------5-----3---0----------3---0-------|

chorus riff
|------------------------------------------------------------|----|
|------------------------------------------------------------|----|
|------------------------------------------------------------|-0/-|
|-------------------------------------------8----------------|-/0-|
|-3----0---3----0---3p0-0----3/5-5-5----8-------8-------0----|----|
|-3----0---3----0---3p0-0----3/5-5-5----8-------8-10-12-0----|----|

|--------------------------------------------------------------------|
|--------------------------------------------------------------------|
|--------------------------------------------------------------------|
|--------------------------------------------------------------------|
|-3----0---3----0----3---0---8---8---8---8---8---8---8-7-5---5//-0---|
|-3----0---3----0----3---0---8---8---8---8---8---8---8-7-5---5//-0---|

|---------------------------|
|-----------------------3---|
|-----------------------2---|
|-----------------------0---|
|-5p3p0-------------0-------|
|-------3b---0-3b---0-------|
...

_________________________________________________
[Vous devez être inscrit et connecté pour voir cette image]
Revenir en haut Aller en bas
simbaud
Administrateur de Queenland
simbaud

Messages : 2811
Date d'inscription : 08/06/2013
Age : 23
Localisation : Queenland (rires)

Les tablatures de A Day At The Races Empty
MessageSujet: Re: Les tablatures de A Day At The Races   Les tablatures de A Day At The Races EmptySam 6 Déc - 17:22


Good Old-Fashioned Lover Boy


Fingerstyle guitar arrangement

Verse:
* . . . * . . . * . . . * . . .
|---0-2-----------------------------------------------10--------------|
|-3------3-------3------3-2-32----------0-0-0---0--------10-------5---|
|-2-------2---2---4---4---2---4-------0-------2-------------11----6-0-|
|-0---------4-----5-----------4---2-4------------4-------------12-7---|
|-----------------5-----------2---------------0---0---------------0---|
|-----------------3-------2-------0-------3---------------------------|

* . . . * . . . * . . . * . . .
|---0-2-------------------20------3--20---------0----10-75---------|
|-3----3--------3-------3-2---3---0-----3---3-2---3--------7---2---|
|---0-2---2---2---4---4-------4---0-------3---2----------------0---|
|-4---------4-----5-----------4-----------5-------0------------2---|
|-----------------5-----------2---------------0--------------2-0---|
|-----------------3-------2-------0-------3------------------------|

Chorus
* . . . * . . . * . . . * . . .
|-2---2-----------2---2-----------2---2----5-42-------2-----------|
|-3---3---5-55-5--3---3-----------3---3---------5-3---3-2---22-22-|
|-2---2---2-22-2--4---4---2---3---2---2---2-------4---4-3---33-3--|
|-0-0-0-0-----------------4---5---0-0-0-0-2-------4---------------|
|---------4---4---2-2-2-2-4---5-----------4---4---2-------1---1---|
|-------------------------2---3-----------------------------------|

* . . . * . . . * . . .
|---------------------------------2--10-75---------|
|---3-------3---------03--3-3-2--23--------7-------|
|-4-----2-4-----2-0-22----3---2---2----------------|
|-4--4----4---4---2-----------2---0----------------|
|-2-------2-------2-----------0--------------4-2-1-|
|-----2-------2---0-------3------------------------|

Bridge 1
* . . . * . . .
|---------------------------------|
|-3---3---6-5-3---------3-4-3-4-3-|
|-3---3---3---3-3-2---2-2-5-2-5-2-|
|-5---5---3---3---0---0-4-7-4-7-4-|
|-----------------0---0--(0--3--5)|
|-3-3-3-3-3-3-3-3-2-2-2-----------|

* . . . * . . . * . . . * . . .
|-----------------1--1--------------------------------------------|
|-3---3---4-444-3-3--3----4-4434343---3-------1-4-3---3-3-2-------|
|-3---3---2---2---3--3----2-------3-----3---2-----3---3---2-3-2-0-|
|-5---5-------------------3-3-3-3-3------3------------------------|
|-----------------1-1-1-1---------1-1-1-1---------1-1-1-1-0-0-----|
|-3-3-3-3-1-1-1-1-------------------------1-1-1-1-----------------|

* . . . * . . . * . . . * . . .
|-------------0-2-3-------7---5---3--20-3--------0---10-75---------|
|---------3--3----------3-7---4-------------3-2------------7---2---|
|-----2-----------0-0-4-------------------3---2---7------------0---|
|-4-----------------4-2-0-4-----------------------0------------2---|
|-5-5-5-5-5-5-5-5-------------2---------------0--------------2-0---|
|---------------------0-----------0---0---3------------------------|


Chorus
* . . . * . . . * . . . * . . .
|-2---2-----------2---2-----------2---2----5-42-------2-----------|
|-3---3---5-55-5--3---3-----------3---3---2-----5-3---3-2-----2---|
|-2---2---2-22-2--4---4---2---3---2---2---2-------4---4-3-----3---|
|-0-0-0-0-----------------4---5---0-0-0-0---------4---------------|
|---------4---4---2-2-2-2-4---5-----------4---4---2-------101-101-|
|-------------------------2---3-----------------------------------|

* . . . * . . . * . . . * . . .
|-----------------------------2-0-----10-7--------------10-7------235-|
|---3-------3---------0-3-33332--3-----------10-7---7----------10-----|
|-4----2--4----2--0-2-----3---2------------7------7---7------7--------|
|-4---4---4---4---2---------------0-----------------0-----------------|
|-2-------2-------2-----------0---------------------------------------|
|-----2-------2---0-------3-------------------------------------------|

Bridge 2
* . . . * . . . * . . . * . . .
|-----2-0---------------2-----0---5---5---0-0----------------------|
|-----------3---------3-2---2---3-3---2---2-2---3-2----------------|
|---2---------------2-------4-4-2-4---2---4-2---2-0---------434----|
|-4-----------45454-------------------------------2---5-4----------|
|-5---------------5---------------0--------------------------------|
|-------------------------------------------------0-3--------------|

* . . . * . . . * . . . * . . .
|-----2-0---5-----0-0-0-0---0---------------------5-----5-----7---|
|-------------7---1-1-1-1---0-----3-----3---------5-----4---------|
|---2-------7-----2-2-2-2---2-----4-----4---------6-----4---------|
|-4-------------------------------6-----6------------------54-----|
|-5---------------0-------------------------------------------7---|
|---------------------------------0-----0-----------------------0-|

* . . . * . . . * . . . * .
|-3---0-------------3-0-0----------------------3--2-2-0-0-|
|---------0-0-------------0-0----------000-----3012-2----3|
|----------3-0---------------0-------0----02-3----0-0-----|
|--------------54--------------54-2-4---------------------|
|---------2---------------2-------2---------------0-0-----|
|-0---3-----------0---3-----------0-------3---------------|

solo VII
* . . . * . . . * . . . * . . .
|---5-2---3-5-------------545-7----20---------2357-7-7------2-1-0-|
|-3---4---5---545-767-767-767-8---3--3235--235------------2--20--0|
|-2---5---6---656-767-----656-10--2------24-----------7---3-3---3-|
|-0-------------------------------0---0---------------9----4------|
|-----------------------------------------4---4-------------------|
|-----------------7-------------------------------7---7-----------|

* . . .
|--22-----212-----|
|-3---212-----212-|
|-4---212-----212-|
|-----434-----434-|
|-2-------2-------|
|-----------------|

* . . . * . . . * . . . * . . .
|---------0-2-0-----------3-5-3---20----3-20--0-3-2-------0---2--5|
|-------0-0-----------2-3-----3-----3-5-----3---------0-----------|
|-0---0---0---0---2-4-----3---3-------2-----------0-------0--h4-2-|
|-2-4---------2---4-------5-------0-------------------2-----------|
|-------------------------------------4---2-------2-----------0---|
|-0-------3---0---2---------------------------2---0-------3-------|


Verse:
* . . . * . . . * . . . * . . .
|---0-2-----------------------------------------------1075---------|
|-3------3-------33-2-0-----------------0-0-0---0---------7--7---2-|
|-2-------2---2---4-----2-0-----------0-------2--------------7---0-|
|-0---0-----4-----5-4-2-0---4-220-2-4------------4---------------2-|
|-----------------------------2---------------0---5------------020-|
|---------------------------------0-------3------------------------|

* . . . * . . . * . . . * . . .
|---0-2-------------------2-------3-2-0---------0----10-75---------|
|-3----3---------30---0-3----3----0------3--3-2---3--------7-0-0---|
|-2-------2---2---0-------2---4---0-------3---2------------7--20-2-|
|-0---0-----4-------4-2-0-4---4-----------5-------0------------2---|
|---------5---5---------------2---------------0----------------0---|
|-----------------3---------------0---0---3------------------------|


Chorus
* . . . * . . . * . . . * . . .
|-2---2-----------2--------------2---------5-32-------2-----------|
|-3---3---5-----------------0-2-3-3-------------53----3-2---22-2--|
|-2---2---2-24242-------0-2-------2---4-2---4-2---4---4-3---33-3--|
|-0-0-0-0---------0-2-4-----------0---0-----------4---------------|
|---------4-4-4-4-2---2-------------------4---4---2---2---1---1---|
|-------------------------2---3-----------------------------------|

* . . . * . . . . . * . . .
|---------------------------3---<15>------------10-7-52-------|
|---3------3----------03--3--<15>---------------------3-2-3---|
|-4-----2-4----2-20-22----3--------------7-67-----------2-2---|
|-4---4---4---4---2-------5----------7-7-----0--------0-2-0---|
|-2-------2-------2-------------------------------------0-----|
|-----2-------2---0-------------------------------------------|

_________________________________________________
[Vous devez être inscrit et connecté pour voir cette image]
Revenir en haut Aller en bas
simbaud
Administrateur de Queenland
simbaud

Messages : 2811
Date d'inscription : 08/06/2013
Age : 23
Localisation : Queenland (rires)

Les tablatures de A Day At The Races Empty
MessageSujet: Re: Les tablatures de A Day At The Races   Les tablatures de A Day At The Races EmptySam 6 Déc - 17:27


Drowse


E|-2---3-0--2---3-0--5---5-5--5---5-5---|
B|-3---3-3--3---3-3--5---5-5--5---5-5---|
G|-2---2-2--2---2-2--6---6-6--6---6-6---|
D|-0---0-0--0---0-0--7---7-7--7---7-7---|
A|-------------------0---0-0--0---0-0---|
E|--------------------------------------|
| | x3
E|--------------------------------------|
B|-2/7---7--7---7-7\\2---2-2--2---2-2---|
G|-2/7---7--7---7-7\\2---2-2--2---2-2---|
D|-2/7---7--7---7-7\\2---2-2--2---2-2---|
A|-0-0---0--0---0-0--0---0-0--0---0-0---|
E|--------------------------------------|

Verse 1:
========

E|-2---2-2--2---2-2---------------------|-------------------3---3-3--0---0-0---|
B|-3---3-3--3---3-3--6---6-6--6---6-6---|-3---3-3--3---3-3--3---3-3--2---2-2---|
G|-2---2-2--2---2-2--4---4-4--4---4-4---|-4---4-4--4---4-4--0---0-0--0---0-0---|
D|-0---0-0--0---0-0--6---6-6--6---6-6---|-4---4-4--4---4-4--0---0-0--2---2-2---|
A|-------------------4---4-4--4---4-4---|-2---2-2--2---2-2--2---2-2--0---0-0---|
E|--------------------------------------|-------------------3---3-3------------|
| | |
E|--------------------------------------|--------------------------------------|
B|--------------------------------------|--------------------------------------|
G|-7---7-7--7---7-7---------------------|----------------------------6---6-6---|
D|-7---7-7--7---7-7--6---6-6--6---6-6---|-4---4-4--4---4-4--5---5-5//5---5-5---|
A|-5---5-5--5---5-5--4---4-4--4---4-4---|-2---2-2--2---2-2--5---5-5//7---7-7---|
E|--------------------------------------|-------------------3---3-3//5---5-5---|
sad - eyed good - bye yesterday ... I remember. It's the

E|-2---2-2--2---2-2---------------------|-------------------3---3-3--0---0-0---|
B|-3---3-3--3---3-3--6---6-6--6---6-6---|-3---3-3--3---3-3--3---3-3--2---2-2---|
G|-2---2-2--2---2-2--4---4-4--4---4-4---|-4---4-4--4---4-4--0---0-0--0---0-0---|
D|-0---0-0--0---0-0--6---6-6--6---6-6---|-4---4-4--4---4-4--0---0-0--2---2-2---|
A|-------------------4---4-4--4---4-4---|-2---2-2--2---2-2--2---2-2--0---0-0---|
E|--------------------------------------|-------------------3---3-3------------|
| | |
E|--------------------------------------|--------------------------------------|
B|--------------------------------------|--------------------------------------|
G|-7---7-7--7---7-7---------------------|----------------------------6---6-6---|
D|-7---7-7--7---7-7--6---6-6--6---6-6---|-4---4-4--4---4-4--5---5-5//5---5-5---|
A|-5---5-5--5---5-5--4---4-4--4---4-4---|-2---2-2--2---2-2--5---5-5//7---7-7---|
E|--------------------------------------|-------------------3---3-3//5---5-5---|

E|-2---2-2--2---2-2---------------------|-------------------5---5-5--5---5-5---|
B|-3---3-3--3---3-3--6---6-6--6---6-6---|-3---3-3--3---3-3--5---5-5--5---5-5---|
G|-2---2-2--2---2-2--4---4-4--4---4-4---|-4---4-4--4---4-4--6---6-6--6---6-6---|
D|-0---0-0--0---0-0--6---6-6--6---6-6---|-4---4-4--4---4-4--7---7-7--7---7-7---|
A|-------------------4---4-4--4---4-4---|-2---2-2--2---2-2--0---0-0--0---0-0---|
E|--------------------------------------|--------------------------------------|
| | |
E|--------------------------------------|--------------------------------------|
B|--------------------------------------|-------------------2---2-2--2---2-2---|
G|-7---7-7--7---7-7---------------------|-------------------2---2-2--2---2-2---|
D|-7---7-7--7---7-7--6---6-6--6---6-6---|-4---4-4--4---4-4--2---2-2--2---2-2---|
A|-5---5-5--5---5-5--4---4-4--4---4-4---|-2---2-2--2---2-2--0---0-0--0---0-0---|
E|--------------------------------------|--------------------------------------|

E|-3---3-3--3---3-3--2---2-2--2---2-2---|-2---2-2--2---2-2--0---0-0--0---0-0---|
B|-3---3-3--3---3-3--3---3-3--3---3-3---|-2---2-2--2---2-2--2---2-2--2---2-2---|
G|-0---0-0--0---0-0--2---2-2--2---2-2---|-2---2-2--2---2-2--0---0-0--0---0-0---|
D|-0---0-0--0---0-0--0---0-0--0---0-0---|-4---4-4--4---4-4--2---2-2--2---2-2---|
A|-2---2-2--2---2-2---------------------|-4---4-4--4---4-4--0---0-0--0---0-0---|
E|-3---3-3--3---3-3---------------------|-2---2-2--2---2-2---------------------|
| | |
E|--------------------------------------|--------------------------------------|
B|-------------------------3--------3---|--------------------------------------|
G|-------------------------2--------2---|-------------------6---6-6--6---6-6---|
D|-5---5-5--5---5-5--------0--------0---|-4---4-4--4---4-4--5---5-5--5---5-5---|
A|-5---5-5--5---5-5---------------------|-4---4-4--4---4-4--7---7-7--7---7-7---|
E|-3---3-3--3---3-3--2---2----2---2-----|-2---2-2--2---2-2--5---5-5--5---5-5---|

Bridge:
=======

E|-2---3-0--2---3-0--5---5-5--5---5-5---|-2---3-0--2---3-0--5---5-5--5---5-5---|
B|-3---3-3--3---3-3--5---5-5--5---5-5---|-3---3-3--3---3-3--5---5-5--5---5-5---|
G|-2---2-2--2---2-2--6---6-6--6---6-6---|-2---2-2--2---2-2--6---6-6--6---6-6---|
D|-0---0-0--0---0-0--7---7-7--7---7-7---|-0---0-0--0---0-0--7---7-7--7---7-7---|
A|-------------------0---0-0--0---0-0---|-------------------0---0-0--0---0-0---|
E|--------------------------------------|--------------------------------------|
| | |
E|--------------------------------------|--------------------------------------|
B|-2/7---7--7---7-7\\2---2-2--2---2-2---|-2/7---7--7---7-7\\2---2-2--2---2-2---|
G|-2/7---7--7---7-7\\2---2-2--2---2-2---|-2/7---7--7---7-7\\2---2-2--2---2-2---|
D|-2/7---7--7---7-7\\2---2-2--2---2-2---|-2/7---7--7---7-7\\2---2-2--2---2-2---|
A|-0-0---0--0---0-0--0---0-0--0---0-0---|-0-0---0--0---0-0--0---0-0--0---0-0---|
E|--------------------------------------|--------------------------------------|

E|-2---3-0--2---3-0--5---5-5--5---5-5---|-2---3-0--2---3-0--5---5-5--5---5-5---|
B|-3---3-3--3---3-3--5---5-5--5---5-5---|-3---3-3--3---3-3--5---5-5--5---5-5---|
G|-2---2-2--2---2-2--6---6-6--6---6-6---|-2---2-2--2---2-2--6---6-6--6---6-6---|
D|-0---0-0--0---0-0--7---7-7--7---7-7---|-0---0-0--0---0-0--7---7-7--7---7-7---|
A|-------------------0---0-0--0---0-0---|-------------------0---0-0--0---0-0---|
E|--------------------------------------|--------------------------------------|
| | |
E|--------------------------------------|--------------------------------------|
B|-2/7---7--7---7-7\\2---2-2--2---2-2---|-2/7---7--7---7-7\\2---2-2--2---2-2---|
G|-2/7---7--7---7-7\\2---2-2--2---2-2---|-2/7---7--7---7-7\\2---2-2--2---2-2---|
D|-2/7---7--7---7-7\\2---2-2--2---2-2---|-2/7---7--7---7-7\\2---2-2--2---2-2---|
A|-0-0---0--0---0-0--0---0-0--0---0-0---|-0-0---0--0---0-0--0---0-0--0---0-0---|
E|--------------------------------------|--------------------------------------|

E|-0---0-0--0---0-0-----------------------|-------------------0---0-0--2---2-2---|
B|-0---0-0--0---0-0-----------------------|-2---2-2--2---2-2--1---1-1--3---3-3---|
G|-1---1-1--1---1-1--------5-5--5---5-5---|-2---2-2--2---2-2--0---0-0--2---2-2---|
D|-2---2-2--2---2-2--5/6---6-6--6---6-6---|-2---2-2--2---2-2--2---2-2--0---0-0---|
A|-2---2-2--2---2-2--5/6---6-6--6---6-6---|-0---0-0--0---0-0--3---3-3------------|
E|-0---0-0--0---0-0--3/4---4-4--4---4-4---|--------------------------------------|
| | |
E|----------------------------------------|--------------------------------------|
B|----------------------------------------|--------------------------------------|
G|-9---9-9--9---9-9-----------------------|-2---2-2--2---2-2--5---5-5--7---7-7---|
D|-9---9-9--9---9-9--5/6---6-6--6---6-6---|-2---2-2--2---2-2--5---5-5--7---7-7---|
A|-7---7-7--7---7-7--5/6---6-6--6---6-6---|-0---0-0--0---0-0--3---3-3--5---5-5---|
E|-0---0-0--0---0-0--3/4---4-4--4---4-4---|--------------------------------------|
Out here ... we'd gather ... scuff up the ... endlessly ... feet,

E|-0---0-0--0---0-0-----------------------|-------------------0---0-0--2---2-2---|
B|-0---0-0--0---0-0-----------------------|-2---2-2--2---2-2--1---1-1--3---3-3---|
G|-1---1-1--1---1-1--------5-5--5---5-5---|-2---2-2--2---2-2--0---0-0--2---2-2---|
D|-2---2-2--2---2-2--5/6---6-6--6---6-6---|-2---2-2--2---2-2--2---2-2--0---0-0---|
A|-2---2-2--2---2-2--5/6---6-6--6---6-6---|-0---0-0--0---0-0--3---3-3------------|
E|-0---0-0--0---0-0--3/4---4-4--4---4-4---|--------------------------------------|
| | |
E|----------------------------------------|--------------------------------------|
B|----------------------------------------|--------------------------------------|
G|-9---9-9--9---9-9-----------------------|-2---2-2--2---2-2--5---5-5--7---7-7---|
D|-9---9-9--9---9-9--5/6---6-6--6---6-6---|-2---2-2--2---2-2--5---5-5--7---7-7---|
A|-7---7-7--7---7-7--5/6---6-6--6---6-6---|-0---0-0--0---0-0--3---3-3--5---5-5---|
E|-0---0-0--0---0-0--3/4---4-4--4---4-4---|--------------------------------------|
and half ... broaden our ... more in the pool ... in the school hall,

E|-0---0-0--0---0-0-----------------------|--------------------------------------|
B|-0---0-0--0---0-0-----------------------|-2---2-2--2---2-2---------------------|
G|-1---1-1--1---1-1--------5-5--5---5-5---|-2---2-2--2---2-2--3---3-3--3---3-3---|
D|-2---2-2--2---2-2--5/6---6-6--6---6-6---|-2---2-2--2---2-2--2---2-2--2---2-2---|
A|-2---2-2--2---2-2--5/6---6-6--6---6-6---|-0---0-0--0---0-0--4---4-4--4---4-4---|
E|-0---0-0--0---0-0--3/4---4-4--4---4-4---|-------------------2---2-2--2---2-2---|
| | |
E|----------------------------------------|--------------------------------------|
B|----------------------------------------|--------------------------------------|
G|-9---9-9--9---9-9-----------------------|-2---2-2--2---2-2--3---3-3--3---3-3---|
D|-9---9-9--9---9-9--5/6---6-6--6---6-6---|-2---2-2--2---2-2--2---2-2--2---2-2---|
A|-7---7-7--7---7-7--5/6---6-6--6---6-6---|-0---0-0--0---0-0--4---4-4--4---4-4---|
E|-0---0-0--0---0-0--3/4---4-4--4---4-4---|-------------------2---2-2--2---2-2---|
with the ... chewing gum bums, watching ... life ... and the fun.

E|-5---5-5--5---5-5--2---3-0--2---3-0---|-5---5-5--5---5-5--2---3-0--2---3-0---|-5---5-5--5---5-5-|
B|-5---5-5--5---5-5--3---3-3--3---3-3---|-5---5-5--5---5-5--3---3-3--3---3-3---|-5---5-5--5---5-5-|
G|-6---6-6--6---6-6--2---2-2--2---2-2---|-6---6-6--6---6-6--2---2-2--2---2-2---|-6---6-6--6---6-6-|
D|-7---7-7--7---7-7--0---0-0--0---0-0---|-7---7-7--7---7-7--0---0-0--0---0-0---|-7---7-7--7---7-7-|
A|-0---0-0--0---0-0---------------------|-0---0-0--0---0-0---------------------|-0---0-0--0---0-0-|
E|--------------------------------------|--------------------------------------|------------------|
| | | |
E|--------------------------------------|--------------------------------------|------------------|
B|-7\2-2-2--2---2-2--2/7---7--7---7-7---|-7\2-2-2--2---2-2--2/7---7--7---7-7---|-7\2-2-2--2---2-2-|
G|-7\2-2-2--2---2-2--2/7---7--7---7-7---|-7\2-2-2--2---2-2--2/7---7--7---7-7---|-7\2-2-2--2---2-2-|
D|-7\2-2-2--2---2-2--2/7---7--7---7-7---|-7\2-2-2--2---2-2--2/7---7--7---7-7---|-7\2-2-2--2---2-2-|
A|-0-0-0-0--0---0-0--0-0---0--0---0-0---|-0-0-0-0--0---0-0--0-0---0--0---0-0---|-0-0-0-0--0---0-0-|
E|--------------------------------------|--------------------------------------|------------------|


Verse 3:
========
(As Verse 1 & 2)

Never wanted to be the boy next door,
Always thought I'd be something more,
But it ain't easy for a small-town boy,
It ain't easy at all.
Thinking it right, doing it wrong,
It's easier from an armchair.
Waves of alternatives wash at my sleepiness,
Have my eggs poached for breakfast, I guess.


Outro:
======
slow down
E|-2---3-0--2---3-0--5---5-5--5---5-5---|-2---3-0--2---3-0--5---5-5--5---5-5---|-2----|
B|-3---3-3--3---3-3--5---5-5--5---5-5---|-3---3-3--3---3-3--5---5-5--5---5-5---|-3----|
G|-2---2-2--2---2-2--6---6-6--6---6-6---|-2---2-2--2---2-2--6---6-6--6---6-6---|-2----|
D|-0---0-0--0---0-0--7---7-7--7---7-7---|-0---0-0--0---0-0--7---7-7--7---7-7---|-0----|
A|-------------------0---0-0--0---0-0---|-------------------0---0-0--0---0-0---|------|
E|--------------------------------------|--------------------------------------|------|
| | | |
E|--------------------------------------|--------------------------------------|-2----|
B|-2/7---7--7---7-7\\2---2-2--2---2-2---|-2/7---7--7---7-7\\2---2-2--2---2-2---|-3----|
G|-2/7---7--7---7-7\\2---2-2--2---2-2---|-2/7---7--7---7-7\\2---2-2--2---2-2---|-2----|
D|-2/7---7--7---7-7\\2---2-2--2---2-2---|-2/7---7--7---7-7\\2---2-2--2---2-2---|-0----|
A|-0-0---0--0---0-0--0---0-0--0---0-0---|-0-0---0--0---0-0--0---0-0--0---0-0---|------|
E|--------------------------------------|--------------------------------------|------|

_________________________________________________
[Vous devez être inscrit et connecté pour voir cette image]
Revenir en haut Aller en bas
simbaud
Administrateur de Queenland
simbaud

Messages : 2811
Date d'inscription : 08/06/2013
Age : 23
Localisation : Queenland (rires)

Les tablatures de A Day At The Races Empty
MessageSujet: Re: Les tablatures de A Day At The Races   Les tablatures de A Day At The Races EmptySam 6 Déc - 17:29


Teo Torriate (Let Us Cling Together)


Arranged for solo guitar.

Intro
* . . . * . . . * . . . * . . .
|-2---2---2---2---3---3---3---3---2---2---2---2---3---3---0---0---|
|-3---3---3---3---3---3---3---3---3---3---3---3---3---3---3---3---|
|-2---2---2---2---3---3---3---3---2---2---2---2---3---3---3---3---|
|---0---0---0---0---0---0---0---0---0---0---0---0---0---0---0---0-|
|-----------------------------------------------------------------|
|-----------------------------------------------------------------|

* . . . * . . .
|-----0-1-3-1-0-------------------|
|-2-3-----2-----3-2---2---2-------|
|-2---2-------2---2-3-2-0---------|
|-------------------------3-2-0---|
|-0---0---0---0---0---0---0-----4-|
|---------------------------------|


Verse:
* . . . * . . . * . . . * . . .
|-----1-------1-------3-------3---------0-0-1-0-----3-3---3---3---|
|-----3-------3---------3---3-------3-3---------3---3-3---3---3---|
|-------2-------2-3-------3-----3-2-------2-------3-------3---3---|
|-0-------3-------0-------0-------0-------0-------0---------0---0-|
|-----------------------------------------------------------------|
|-----------------------------------------------------------------|

* . . . * . . . * . . . * . . . * . . .
|-1-------0---0---1-------0---0---------0-0-1-0-----3-3-----------5---------------|
|-3-------3---2---3-------3---2-----3-3---------3---3-3-------3-3-5---5---5---5---|
|-2---2---3-------2---2---3-----3-2-------2-------3---------------7---7---7---7---|
|-0-0---0---0---0---0---0---0-----0---0---0-------0---------------8---------------|
|-----------------------------------------------------------------5-----5---5---5-|
|---------------------------------------------------------------------------------|

* . . . * . . .
|-----0-1-3-1-0-------------------|
|-2-3-----2-----3-2---2---2-------|
|-2---2-------2---2-3-2-0---------|
|-------------------------3-2-0---|
|-0-------0-------0---0---0-----4-|
|---------------------------------|



2nd Verse
(bass fills added)
* . . . * . . . * . . . * . . .
|-----1-------1---3---------------------0-0-1-0-----3-3-----------|
|-----3-------3---3-------3---------3-3---------3---3-3-------3---|
|-------2-------2-3---------3-2-3-2-------2-------3-----323-----2-|
|-0-------3-------0-------------3-0-------0-------0---------------|
|-----------------------------------------------------------------|
|-----------------------------------------------------------------|

* . . . * . . . * . . . * . . . * . . .
|-1-------0---0---1-------0---0---------0-0-1-0-----3-3-----------5---------------|
|-3-------3---2---3-------3---2------33-323-----3---3-3-------3-3-5---5---5---5---|
|-2---2---3-------2-2-----3-----3-2---------------3-----------3---7---7---7---7---|
|-0-0---0---032-------0-----032---0-------0-------0-----030-3---0-8---------------|
|---------------1-0-----------------------------------------------5-----5---5---5-|
|---------------------------------------------------------------------------------|

* . . . * . . .
|-----0-1-3-1-3-1-0---------------|
|-2-3-----2---5-3-2---2---2-------|
|-2---2-----------2-3-2-0---------|
|-------------------------3-2-0---|
|-0-------0-------0---0---0-----4-|
|---------------------------------|



Chorus
* . . . * . . . * . . . * . . .
|-2--------0--0---3---2-2-----2---3---3-3---2-2-2-----2---2--0----|
|--0-----33-----3-3---3-3-----3---3---------------3---3---3--2--3-|
|-2---4---2---2---4---------2---2-0---------------2---2---2--22---|
|-0---5-------0---0-------0---------------------0---0---0---------|
|-----------------------------------------0---4-----------0-0-0---|
|-----3---2-----------------------3-------------------------------|

* . . . * . . . * . . . * . . .
|-2-2-2--22-------0------------------------0--0---2-----2-2-0-0---|
|-3---3---3---55-----33---3--03---77--7-5-3---32--3-----3-3---3-2-|
|-2-------2---2---0---0---0-------7-------4---2---2---2---4---2---|
|-0---------0-2-------------------7-------5-------0-0-------------|
|-------------4---2---------------0-------0---0---------------0---|
|-----------------------3---------------------------------3-------|



2nd Chorus
(vocal conterpoint)
* . . . * . . . * . . . * . . .
|-----------0-0---3---2-2-----2---3---3-3-----2-2-----2---2--0----|
|--0--0--33----3--3-----------3---3---2-0---------3---3---3--2--3-|
|-2---0--22-2-22------2-2---2---2-----------------2---2---2--22---|
|-0-----------0---0-------0---------------------0---0---0---------|
|-----------------------------------------0---4-----------0-0-0---|
|-----3---2-----------------------3-------------------------------|

* . . . * . . . * . . . * . . . * . . .
|-2-2-22--2----2------------------22--2-0-0-------2-----2-2-0-0---2---2---1-0-0---|
|-------------5--53-3-33--3--03---32--0----3--32--3-----3-3---3-2-3---3---3---3-2-|
|-2-2-22--2---22-20-0-00--0--02---------0-00--22--2---2---4---2---2---2---3---2---|
|-0-------0---------------------------------------0-0---------------0---0---------|
|-------------4---2---------------0-------0---0---------------0---------------0---|
|-----------------------3---------------------------------3---------------3-------|


repeat VERSE

Repeat CHORUS
with altered last measure (link to the Bridge)
* . . .
|-2---2---3---2---|
|-3---3---3---3---|
|-2---2---4---2---|
|-0-0---0-----0---|
|-----------------|
|---------3-------|


Bridge
* . . . * . . . * . . . * . . .
|-20------0-----------2--------0--------------2-230-------3---2---|
|-2-------2-------3--5--3-----3---2-22--------3---2---2---3---3---|
|-2-------2-----2-4------4--4-----2-------2---2---2---2---4---2---|
|---------------------------5-----2-----2---2-0-----2---2-----0---|
|-0---0---0---0---2---------------0---0-----------0---------------|
|-------------------------3-------------------------------3-------|

* . * . . . * . . . * . .
|-2-0---0-5---4-5-----6-7-7-----7-----2-2-------2-2----2------------|
|-2-------5---5---5---5---7---7-------------3-----3----2------------|
|-2-------6---4---6---6---7---7---------------0---2----0-----2------|
|---------7---6---5---4--------------------------------2------------|
|-0---0---------------------------0---0-----------0----0------------|
|-------------------------7---7-----------3---3---------------------|


repeat Chorus
without the G > A ending



Outro
* . . . * . . . * . . . *
|-2---2--32-----2-3---3---3-----0-----------0-0---2--------|
|-3---3--53---5---3---3---3---3---7-8-7-5-3---3-2-3--------|
|-2---2---2---2---4---4---4---4---7-9-7-6-4---2---2--------|
|-0-0---0---0-2-------------------7-----7-5-------0--------|
|-------------4---2---------------0-------0---0------------|
|-----------------------3-3---3----------------------------|

_________________________________________________
[Vous devez être inscrit et connecté pour voir cette image]
Revenir en haut Aller en bas
Contenu sponsorisé




Les tablatures de A Day At The Races Empty
MessageSujet: Re: Les tablatures de A Day At The Races   Les tablatures de A Day At The Races Empty

Revenir en haut Aller en bas
 
Les tablatures de A Day At The Races
Revenir en haut 
Page 1 sur 1
 Sujets similaires
-
» le Bull Terrier

Permission de ce forum:Vous ne pouvez pas répondre aux sujets dans ce forum
Queenland - Le forum :: Queen :: Leurs Albums ... :: A day at the races-
Sauter vers: